save to print version add songbook text version e-mail correct tuner
chordsukulelecavacokeyboardtabbassdrumsharmonicaflute Guitar Pro
close

there isn't a video lesson for this song

chords

Brother

	  		


Intro/Verse
 
e|--------------------------------------------------------------| 
B|---8-8---6-------6-----------4-----------3-----------4--------| 
G|---------------7-----7\----5-----5-----3-----3----------------| 
D|---------------------------------------------------5-----5----| 
A|---6---6---6---------------3---3---3---------------3---3---3/-| 
E|---------------6---6---6---------------3---3---3--------------| 

e|-------------------------------------------------------------------------| 
B|-8-8---6-------6-----------4----------8-8---6-------6-----------4--------| 
G|-------------7-----7\----5-----5------------------7-----7\----5-----5----| 
D|-------------------------------------------------------------------------| 
A|-6---6---6---------------3---3---3/---6---6---6---------------3---3---3--| 
E|-------------6---6---6----------------------------6---6---6--------------| 

e|----------------------------------------------------------------|| 
B|---3-----------4-----------3-------------1----------------------|| 
G|-3-----3-----------------3-----3-----0h2-----2-----0-----0------||  (3x) 
D|-------------5-----5---------------------------------1----------|| 
A|-------------3---3---3-----------------------------1---1---1/---|| 
E|-3---3---3---------------3---3---3---1-----1---1----------------|| 


after 3rd time end with this and continue to chorus:
 
e|----------------------------------------------------------------------------| 
A|--4----------3------------1-------------------------------------------------| 
G|-----------3----3----0h2----2----7-----7----7-----7----7-----7----7-----7---| 
D|5-----5----------------------------8----------8----------8----------8-------| 
A|3---3---3-------------------------------------------------------------------| 
E|-----------3---3--3--1-----1--1--6---6---6--6---6---6--6---6---6--6---6---6-| 


Chorus I
 
e|--------------------------------------------------------------------| 
B|---3-3-x--3-3-----------------------3-3-x--3-3----------------------| 
G|---3-3-x--3-3-----------------------3-3-x--3-3-------------------5--| 
D|--------------3---3----5------7----------------3---3----5------7----| 
A|---5---x--5-----5----6---6--8---8---5---x--5-----5----6---6--8------| 
E|--------------------------------------------------------------------| 

e|------------------------------------------------------------------| 
B|-3-3-x--3-3-----------------------3-3-x--3-3----------------------| 
G|-3-3-x--3-3-----------------------3-3-x--3-3-------------------5--| 
D|------------3---3----5-----------------------3---3----5------7----| 
A|-5---x--5-----5----6---6----3-6---5---x--5-----5----6---6--8------| 
E|--------------------------5---------------------------------------| 

e|--------------------------------------------------| 
B|-----6---------6-----6-----8-8---6-------4--------| 
G|---7-----7-------7---------------------5-----5----| 
D|--------------------------------------------------| 
A|---------------------------6---6---6---3---3---3--| 
E|---6---6---6---6---6---6--------------------------| 

e|-----------------------------------------------| 
B|---6---------6-----6---8-8---6-------4---------| 
G|-7-----7-------7-------------------5-----5-----| 
D|-----------------------------------------------| 
A|-----------------------6---6---6---3---3---3---| 
E|-6---6---6---6---6-----------------------------| 

e|--------------------------------------------------| 
B|-----6---------6-6---------8-8---6-------4--------| 
G|---7-----7-----------7-----------------5-----5----| 
D|--------------------------------------------------| 
A|---------------------------6---6---6---3---3---3--| 
E|---6---6---6---6-6-6---6--------------------------| 

e|-----------------------------------------------| 
B|---6---------6-----6---8-8---6-------4---------| 
G|-7-----7-------7-------------------5-----5-----| 
D|-----------------------------------------------| 
A|-----------------------6---6---6---3---3---3---| 
E|-6---6---6---6---6-----------------------------| 


Chorus II
 
e|--------------------------------------------------------------------| 
B|---3-3-x--3-3-----------------------3-3-x--3-3----------------------| 
G|---3-3-x--3-3-----------------------3-3-x--3-3----------------------| 
D|--------------3---3----5------7----------------3---3----5-----------| 
A|---5---x--5-----5----6---6--8---8---5---x--5-----5----6---6----3-6--| 
E|-------------------------------------------------------------5------| 

e|------------------------------------------------------------------| 
B|-3-3-x--3-3-----------------------3-3-x--3-3----------------------| 
G|-3-3-x--3-3-----------------------3-3-x--3-3----------------------| 
D|------------3---3----5------7----------------3---3----5-----------| 
A|-5---x--5-----5----6---6--8---8---5---x--5-----5----6---6----3-6--| 
E|-----------------------------------------------------------5------| 

e|--------------------------------------------------| 
B|-----6---------6-----6-----8-8---6-------4--------| 
G|---7-----7-------7---------------------5-----5----| 
D|--------------------------------------------------| 
A|---------------------------6---6---6---3---3---3--| 
E|---6---6---6---6---6---6--------------------------| 

e|-----------------------------------------------| 
B|---6---------6-----6---8-8---6-------4---6-----| 
G|-7-----7-------7-------------------5-----------| 
D|-----------------------------------------------| 
A|-----------------------6---6---6---3---3---3---| 
E|-6---6---6---6---6-----------------------------| 

e|--------------------------------------------------| 
B|-----6---------6-6---------8-8---6-------4--------| 
G|---7-----7-----------7-----------------5-----5----| 
D|--------------------------------------------------| 
A|---------------------------6---6---6---3---3---3--| 
E|---6---6---6---6-6-6---6--------------------------| 

e|-----------------------------------------------| 
B|---6---------6-6---6---8-8---6-------4---------| 
G|-7-----7---------------------------5-----5-----| 
D|-----------------------------------------------| 
A|-----------------------6---6---6---3---3---3---| 
E|-6---6---6---6-6-6-----------------------------| 

End
 
e|--------------------------------------------------------------| 
B|---8-8---6-------6-----------4-----------3-----------4--------| 
G|---------------7-----7\----5-----5-----3-----3----------------| 
D|---------------------------------------------------5-----5----| 
A|---6---6---6---------------3---3---3---------------3---3---3--| 
E|---------------6---6---6---------------3---3---3--------------| 

e|-------------------------------------| 
B|---3-------------1-------------------| 
G|-3-----3-----0h2-----2/----7---------| 
D|-------------------------------------| 
A|-------------------------------------| 
E|-3---3---3---1-----1---1---6---------|  
		  

auto scroll beats size up size down change color hide chords drawings
tab show chords e-chords YouTube Clip e-chords hide all tabs e-chords go to top tab

share