Edvaldo Junior

Eu Te Agradeço, Senhor

Edvaldo Junior

tabs nolevel nolevel

by  HELON

save to print version add songbook text version e-mail correct tuner
chordsukulelecavacokeyboardtabbassdrumsharmonicaflute Guitar Pro
close

there isn't a video lesson for this song

chords

Eu Te Agradeço, Senhor

(Edvaldo Junior)

	  		

1   |   |   |   |   |   |  |   |   |   |     |   |       
E |----------------------|-----------------------------| 
B |----------------------|-----2-3-2-0-----------------| 
G |---------------2------|-4-4---------2-0-------------| 
D |-4-4-4-4-2-0----------|-----------------4-----4-4-2-| 
A |-------------4--------|-----------------------------| 
E |----------------------|-----------------------------| 



3   |   |   |   |   |     |      |   |   |   |   |   |  |   |   |   |   |   |  
E |----------------------------|----------------------|----------------------| 
B |-------------0--------------|----------------------|----------------------| 
G |-------0---2----------------|----------------------|---------------2------| 
D |--2--4---5-----4-0-0-0------|-0-0-0----------------|-4-4-4-4-2-0----------| 
A |------------------------2-4-|-------4-2-1-2--------|-------------4--------| 
E |----------------------------|----------------------|----------------------| 



6   |   |   |   |     |   |       |   |   |   |   |     |      
E |-----------------------------|----------------------------| 
B |-----2-3-2-0-----------------|-------------0--------------| 
G |-4-4---------2-0-------------|-------0---2----------------| 
D |-----------------4-----4-4-2-|--2--4---5-----4-0-0-0------| 
A |-----------------------------|------------------------2-4-| 
E |-----------------------------|----------------------------| 



8   |   |   |   |   |   |     |   |   |    |   |   |      
E |-------------------------|---------------------------| 
B |-------------------------|-0-------------------------| 
G |-------------------------|-----0--------0------------| 
D |-0-0-0-------------------|---7---7--0-0---4---4--0-0-| 
A |-------4-2-1-2-------2-2-|------------------7--------| 
E |-------------------------|---------------------------| 



10  |   |   |    |   |   |     |   |   |   |   |   |     
E |--------------------------|-------------------------| 
B |--------------------------|-------------------------| 
G |------------0-2-----------|-------------------------| 
D |-----0-2--4-----4-0-0-----|-0---0-------------------| 
A |-4-4------------------2-4-|-------4-2-1-2-------2-2-| 
E |--------------------------|-------------------------| 



12  |   |   |    |   |   |      |   |   |    |   |   |     |   |   |   |   |   |  
E |---------------------------|--------------------------|----------------------| 
B |-0-------------------------|--------------------------|----------------------| 
G |-----0--------0------------|------------0-2-----------|----------------------| 
D |---7---7--0-0---4---4--0-0-|-----0-2--4-----4-0-0-----|-0---0----------------| 
A |------------------7--------|-4-4------------------2-4-|-------4-2-1-2--------| 
E |---------------------------|--------------------------|----------------------| 
		  

See also:

tabs Oficina G3 - o tempo (ver. 2) tabs Voz da Verdade - Projeto no derserto tabs Toque no Altar - Deus De Promessa tabs Lázaro - Meu Mestre tabs Oficina G3 - Minha Luta tabs Lázaro - Deus Vai Fazer(completa E Correta)
e-chords

Other versions:

tabs Edvaldo Junior - Eu Te Agradeço, Senhor
auto scroll beats size up size down change color hide chords drawings
tab show chords e-chords YouTube Clip e-chords hide all tabs e-chords go to top tab

share with facebook