Eduardo Ardanuy

Tritone

Eduardo Ardanuy

tabs Advanced advanced

by  VINIGUITAR95

save to print version add songbook text version e-mail correct tuner
chordsukulelecavacokeyboardtabbassdrumsharmonicaflute Guitar Pro
close

there isn't a video lesson for this song

chords

Tritone

Year: 2005 -

(eduardo ardanuy)

	  		riff 1 :  

parte 1  
E------------------------  
a------------------------  
d-7-8-9-10-------10------  
g----------9-8-7---------  
b-------------------8-7--  
e------------------------  

parte 2:  
E----------------------  
a----------------------  
d-------10-----10-7----  
g----------9-8-----8-7-  
b-10--8----------------  
e----------------------  

parte 3:  
E---------------------------8~~  
a-----------------9-6-7-8-9----  
d------------10-7--------------  
g----------8-------------------  
b-10-9-8-7---------------------  
e------------------------------  

parte 4:  
E------------------------------------------  
a-12-13-14-15------------------10--9--8--7-  
d------------12-13-14---14-12--12--11-10-9-  
g---------------------12-------------------  
b------------------------------------------  
e------------------------------------------  

riff 2:  
parte 1:  
E-5-6-7-8---3-4-5--5-----5-3-5---5-4-3--4-3-2--3-2-1-3-5-6-7-8-------------8~~ 
a--------6-7-----3---5-3-------3-------2------1----------------7-6--6-7-8-9---  
d-----------------------------------------------------------------------------  
g-----------------------------------------------------------------------------  
b-----------------------------------------------------------------------------  
e-----------------------------------------------------------------------------  

parte 2:  
E-5----------10-9-8-7-  
a--6---------10-9-8-7-  
d---7-----7-----------  
g----5-8-9------------  
b---------------------  
e---------------------  

~~ = vibrato 

obs: eu sem querê escrevi a tab de cima pra baxo (hehe) 

		  

See also:

tabs Cássia Eller - Malandragem (Acoustic) tabs Capital Inicial - Natasha tabs Paralamas do Sucesso - Alagados tabs Legião Urbana - Índios tabs Legião Urbana - Ainda É Cedo tabs Engenheiros do Hawaii - Infinita Highway
e-chords

Other versions:

tabs Eduardo Ardanuy - Tritone
auto scroll beats size up size down change color hide chords drawings
tab show chords e-chords YouTube Clip e-chords hide all tabs e-chords go to top tab

share