Ednaldo Pereira

God Is Good

Ednaldo Pereira

tabs

by  TERCMORAES

save to print version add songbook text version e-mail correct tuner
chordsukulelecavacokeyboardtabbassdrumsharmonicaflute Guitar Pro
close

there isn't a video lesson for this song

chords

God Is Good

	  		Intro 

E|-------------------------------------------| 
B|--7--3--5--7-------------------------------| 
G|-------------------------------------------| 
D|--5--1--3--5--6-5-3-0-6-5-3-0--------------| 
A|-------------------------------------------| 
E|-------------------------------------------| 

Primeira Parte 

E|-------------------------------------------| 
B|--8-8-11-8-8-5-----------------------------| 
G|--7-7-10-7-7-4-----------------------------| 
D|-------------------------------------------| 
A|-------------------------------------------| 
E|-------------------------------------------| 

Final 

E|-------------------------------------------| 
B|-------------------------------------------| 
G|-------------------------------------------| 
D|--5-5-8--5-5-2-----------------------------| 
A|--5-5-8--5-5-2-----------------------------| 
E|--3-3-6--3-3-0-----------------------------| 

E|-------------------------------------------| 
B|--7--3--5--7-------------------------------| 
G|-------------------------------------------| 
D|--5--1--3--5--6-5-3-0-6-5-3-0--------------| 
A|-------------------------------------------| 
E|-------------------------------------------| 
		  

See also:

tabs Legião Urbana - Ainda É Cedo tabs Legião Urbana - Índios tabs Capital Inicial - Não Olhe Prá Trás tabs Capital Inicial - Fogo tabs Raul Seixas - Medo da Chuva tabs Raul Seixas - Metamorfose Ambulante
e-chords

Other versions:

tabs Ednaldo Pereira - God Is Good
auto scroll beats size up size down change color hide chords drawings
tab show chords e-chords YouTube Clip e-chords hide all tabs e-chords go to top tab

share