Edguy

home > Edguy

Tears of a mandrake Tab

Edguy

Difficulty: EasyEasy

tuner correct add songbook print version text version save to e-mail
chordsukulelecavacokeyboardtabbassdrumsharmonicsflute Guitar Pro
chords

Tears of a mandrake

  		  TUNE DOWN 1/2 STEP

  INTRO x2                                  
e|---------------------------------------------------------------------|
B|---------------------------------------------------------------------|
G|---------------------------------------------------------------------|
D|-2-----2-----2-0--2-----0-2---2-0--4-----4-----5-2--4-----5---4---2--|
A|-2-----2-----3-0--2-----0-2---3-0--2-2-2-2-2-2-2-2--2-2-2-2-2-2-2-2--|
E|-0-0-0-0-0-0------0-0-0-----0----------------------------------------|


e|--------------------------------------------------
B|--------------------------------------------------
G|-----------------------------------5------4----7--
D|-2-----2-----2-0--2-----0-2---2-0--5------4----7--
A|-2-----2-----3-0--2-----0-2---3-0--3------2----5--
E|-0-0-0-0-0-0------0-0-0-----0---------------------


  VERSE
e|--------------------------------------------------
B|--------------------------------------------------
G|------5--------7-----------------5--------7--|
D|-------------------------5----5---7---<7>--------------------------5----5---7--|
A|-2...--------------------3----5---5--------2...--------------------3----5---5--|
E|-0...-------------------------3------------0...-------------------------3------|

e|----------------------------------------------------------------------------|
B|----------------------------------------------------------------------------|
G|-----------------7-------------------------------5-5-5-5-5-5-5-5-7-7-7-7-7--|
D|-5---------------7---------------3---------------5-5-5-5-5-5-5-5-7-7-7-7-7--|
A|-5---------------5---------------3---------------3-3-3-3-3-3-3-3-5-5-5-5-5--|
E|-3---------------5---------------1------------------------------------------|



  CHORUS
e|-------------------------------------------------------------------------------|
B|-------------------------------------------------------------------------------|
G|-----------8----------------3---2-----------------8---------5---------7----10--|
D|-5---------8---------3------3---3-------5---------8---------5---------7----10--|
A|-5---------6---------3------1---0-------5---------6---------3---------5----8---|
E|-3---------6---------1------------------3---------6----------------------------|

e|-------------------------------------------------------------------------------|
B|-------------------------------------------------------------------------------|
G|-----------8----------------3---2-----------------8---------5---------7--------|
D|-5---------8---------3------3---3-------5---------8---------5---------7--------|
A|-5---------6---------3------1---0-------5---------6---------3---------5--------|
E|-3---------6---------1------------------3---------6----------------------------|

 
  REPEAT VERSE AND CHORUS
 
 
  SOLO (I WILL TAB THE SOLO LATER)
e|------------------------------------------------------------------------------------------|
B|------------------------------------------------------------------------------------------|
G|-------------------------------------------7---------------5---------------4-4-4-4-4-4-4--|
D|-2-------------------------2---------------7---------------5---------------4-4-4-4-4-4-4--|
A|-2-------------------------2---------------5---------------3---------------2-2-2-2-2-2-2--|
E|-0-------------------------0---------------5----------------------------------------------|

  
  SOLO 1 RYTHM x2
e|---------------------------------------------------------------|
B|---------------------------------------------------------------|
G|-------4---5---9---7-----4---2------------4---5---9---5-----7--|
D|-2-----4---5---9---7-----4---2--5---2-----4---5---9---5-----7--|
A|-2-----2---3---7---5-----2---0--5---2-----2---3---7---3-----5--|
E|-0------------------------------3---0--------------------------|



e|---|
B|---|
G|---|
D|-2-|
A|-2-|
E|-0-|

 

  SOLO 2 RYTHM x2
e|---------------------------------------------------------------------|
B|---------------------------------------------------------------------|
G|-------7---8---12---10-----7---5--------------7---8---12---8-----10--|
D|-5-----7---8---12---10-----7---5----8---5-----7---8---12---8-----10--|
A|-5-----5---6---10---8------5---3----8---5-----5---6---10---6-----8---|
E|-3----------------------------------6---3----------------------------|

e|---------------------------------------------------------------------|
B|---------------------------------------------------------------------|
G|-------7---8---12---10-----7---5--------------7---8---12---8---------|
D|-5-----7---8---12---10-----7---5----8---5-----7---8---12---8-----3---|
A|-5-----5---6---10---8------5---3----8---5-----5---6---10---6-----3---|
E|-3----------------------------------6---3------------------------1---|


  REPEAT CHORUS


  ENDING
e|------------------------------------|
B|------------------------------------|
G|------------------------------------|
D|------------------------------------|
A|-5-5-5-5-5-5-5-5---5-5-5-5-5-5-5-5--|
E|-3-3-3-3-3-3-3-3---3-3-3-3-3-3-3-3--|
	  

Search Paypal
auto scroll beats size up size down change color hide chords drawings
tab show chords e-chords YouTube Clip e-chords hide all tabs e-chords go to top tab