Edguy

home > Edguy

Rock Of Cashel Tab

Edguy

Difficulty: nolevelnolevel

by abelamin

tuner correct add songbook print version text version save to e-mail
chordsukulelecavacokeyboardtabbassdrumsharmonicsflute Guitar Pro
chords

Rock Of Cashel

  		Intro 

Guitar 1  
D|-----------------------------------------------------------| 
A|-/13~--13h15-12--------------------------------------------| 
F|---------------12----12------------------------------------| 
C|------------------14----12~----14-12h14p12/10----10-10/12~-| 
G|----------------------------------------------12-----------| 
D|-----------------------------------------------------------| 

D|----------------------------------------------------------------------| 
A|--------------------------------------------------------------13------| 
F|-----12-------------------------------------12----12-14-12-14---12-14-| 
C|-/14----14-12-14-7/10~----12-10-12-14-12-14----14---------------------| 
G|----------------------------------------------------------------------| 
D|----------------------------------------------------------------------| 

D|------------------------------------------------13-------------15b---| 
A|-/13~-13h15-12-----------------------13-15--15b----15b-15brp13-------| 
F|---------------12----12/14--14~---14---------------------------------| 
C|------------------14-------------------------------------------------| 
G|---------------------------------------------------------------------| 
D|---------------------------------------------------------------------| 

D|-----17-19-19br-17-20brp17----20--------| 
A|-/20----------------------20b----20b----| 
F|----------------------------------------| 
C|----------------------------------------| 
G|----------------------------------------| 
D|----------------------------------------| 

D|---------17----------------------------------------------------------------| 
A|-20brp17----20-17-20p17----17----------------------------------------------| 
F|------------------------19----19-17-19p17---17------17h19-17-17------------| 
C|-----------------------------------------19---19-17------------19p17-------| 
G|----------------------------------------------------------------------20---| 
D|---------------------------------------------------------------------------| 

Guitar 2 
D|---------------------------------------------------------------------------| 
A|---------------------------------------------------------------------------| 
F|-----------------------2-------5-------------------------2---------5-------| 
C|-2---------------------0-------2-------------------------0-----0---2-------| 
G|-0-------5---2-----2---------------3-----3---5-------5-----------------3---| 
D|---------3---0-----0---------------1-----1---3-------3-----------------1---| 

D|------------------------------------------| 
A|------------------------------------------| 
F|------------------------------------------| 
C|-5-3-2------------------------------------| 
G|-------5--3-2-0-0-0-0-0-0-0-0-----5p3-----| 
D|------------------------------0-3-----3---| 

D|---------------------------------------------------------------------------| 
A|---------------------------------------------------------------------------| 
F|-----------------------2-------5-------------------------2---------5-------| 
C|-2---------------------0-------2-------------------------0-----0---2-------| 
G|-0-------5---2-----2---------------3-----3---5-------5-----------------3---| 
D|---------3---0-----0---------------1-----1---3-------3-----------------1---| 

D|-----------------------------| 
A|-----------------------------| 
F|-----------------------------| 
C|-------2-----2---------------| 
G|-5-----0-----0---------------| 
D|-3-----------------3---0---3-| 

verse 1 

D|---8\----------------------------| 
A|-x-8\---1p0---0------------------| 
F|-x----------2---2-0-2p0---0---0--| 
C|------------------------2---2----| 
G|---------------------------------| 
D|---------------------------------| 

D|-0-----0-------------------------------------------------------| 
A|-1-----0-----6-----8----10----10-10-10-10-10-10-10-10----------| 
F|-2-----2-----7-----9----10----10-10-10-10-10-10-10-10----------| 
C|-2-----2-----7-----9----10----10-10-10-10-10-10-10-10----------| 
G|-------------5-----7-----8-----8--8--8--8--8--8--8--8-----12\--| 
D|----------------------------------------------------------12\--| 


Pre Chorus 

D|--------------------------------------------| 
A|--------------------------------------------| 
F|--------------------------------------------| 
C|--------------------------------------------| 
G|-0-----2h3-2-----3h5-3-----0h3-2------0-----| 
D|---0-3-------0-3-------0-3--------0-3-------| 

D|----------------------------------------------------| 
A|----------------------------------------------------| 
F|-------12---10-------9---10-------9---5--------10\--| 
C|-----------------------------------------------10\--| 
G|-8-8-8----8----8-8-8---8----5-5-5---5---7-7-7---8\--| 
D|----------------------------------------------------| 

D|--------------------------------------------| 
A|--------------------------------------------| 
F|--------------------------------------------| 
C|--------------------------------------------| 
G|-0-----2h3-2-----3h5-3-----0h3-2------0-----| 
D|---0-3-------0-3-------0-3--------0-3-------| 

D|------------------------------------------------| 
A|------------------------------------------------| 
F|-------12---10--------10---7---5---9--10---12\--| 
C|----------------------10---7---5---9--10---12\--| 
G|-8-8-8----8----8-8-8---8---5---3---7---8---10\--| 
D|------------------------------------------------| 

Chorus 

D|--------------------------------------------| 
A|--------------------------------------------| 
F|--------------------------------------------| 
C|------5----------------2--------------------| 
G|--2---3------------3---0---5-----2-----3----| 
D|--3-------1/10\1---1-------3-----0-----1----| 

D|-------------------------------------------------| 
A|-------------------------------------------------| 
F|-------------------------------------------------| 
C|-----------5-----------------2-------------------| 
G|-5-5-5-2---3---5-3-0---3-----0----5----2----3----| 
D|-3-3-3-3---------------1----------3----0----1----| 


D|---------------------------------------------------------------1---0h1p0-----------| 
A|-------------------------------------------------------------------------3---1p0---| 
F|--------5-----4h5p4p0----------------5----4h5p4p0--------------------------------0-| 
C|----7-------------------7p5------5----------------0-7p0--0-0-0---0---------0-------| 
G|--0---0----0----------0-----7------------------------------------------------------| 
D|-------------------------------3---3---3-------------------------------------------| 

D|-----------------------------------| 
A|----8---8----8------10---10--------| 
F|----9---9----9------10---10--------| 
C|----9---9----9------10---10--------| 
G|-7--7---7----7---8---8----8--------| 
D|-----------------------------------| 

D|---------------------------------------------------------------1---0h1p0-----------| 
A|-------------------------------------------------------------------------3---1p0---| 
F|--------5-----4h5p4p0----------------5----4h5p4p0--------------------------------0-| 
C|----7-------------------7p5------5----------------0-7p0--0-0-0---0---------0-------| 
G|--0---0----0----------0-----7------------------------------------------------------| 
D|-------------------------------3---3---3-------------------------------------------| 

D|---------------------------------------------------15\--| 
A|----8---8----8------10---10---10--------12---12---------| 
F|----9---9----9------10---10---10--------12---12---------| 
C|----9---9----9------10---10---10--------12---12---------| 
G|-7--7---7----7---8---8----8----8---10---10---10---------| 
D|--------------------------------------------------------| 

Intro theme 

Guitar 1  
D|-----------------------------------------------------------| 
A|-/13~--13h15-12--------------------------------------------| 
F|---------------12----12------------------------------------| 
C|------------------14----12~----14-12h14p12/10----10-10/12~-| 
G|----------------------------------------------12-----------| 
D|-----------------------------------------------------------| 

D|----------------------------------------------------------------------| 
A|--------------------------------------------------------------13------| 
F|-----12-------------------------------------12----12-14p12-14---12-14-| 
C|-/14----14-12-14-7/10~----12-10-12-14p12-14----14---------------------| 
G|----------------------------------------------------------------------| 
D|----------------------------------------------------------------------| 

D|---------------------------------------------| 
A|-13h17p13----------13-17p13-12---------------| 
F|----------14----14-------------14-12----14~--| 
C|-------------14----------------------14------| 
G|---------------------------------------------| 
D|---------------------------------------------| 

Guitar 2 
D|---------------------------------------------------------------------------| 
A|---------------------------------------------------------------------------| 
F|-----------------------2-------5-------------------------2---------5-------| 
C|-2---------------------0-------2-------------------------0-----0---2-------| 
G|-0-------5---2-----2---------------3-----3---5-------5-----------------3---| 
D|---------3---0-----0---------------1-----1---3-------3-----------------1---| 

D|-----------------------------------| 
A|-----------------------------------| 
F|-----------------------------------| 
C|-5-------2-------------------------| 
G|-3-------0-----x\------------------| 
D|---------------x\----Pick scrape---| 

verse 2 

D|-0----------0-----------------------------------------------------| 
A|-1-------1--0---x-x---x---6-----8----10--1p0---0------------------| 
F|-2-----2----2---x-x---x---7-----9----10------2---2-0-2p0---0---0--| 
C|-2-0h2------2---x-x---x---7-----9----10------------------2---2----| 
G|--------------------------5-----7-----8---------------------------| 
D|------------------------------------------------------------------| 

D|-0---------0-------------------------------------------------------------------| 
A|-1-----1---0-----------------6-----8----10----10-10-10-10-10-10-10-10----------| 
F|-2-----2---2---x-x-x-x-x-x---7-----9----10----10-10-10-10-10-10-10-10----------| 
C|-2-----2---2-----------------7-----9----10----10-10-10-10-10-10-10-10----------| 
G|-----------------------------5-----7-----8-----8--8--8--8--8--8--8--8-----12\--| 
D|--------------------------------------------------------------------------12\--| 

Pre Chorus 2 

D|--------------------------------------------| 
A|--------------------------------------------| 
F|--------------------------------------------| 
C|--------------------------------------------| 
G|-0-----2h3-2-----3h5-3-----0h3-2------0-----| 
D|---0-3-------0-3-------0-3--------0-3-------| 

D|----------------------------------------------------| 
A|----------------------------------------------------| 
F|-------12---10-------9---10-------9---5--------10\--| 
C|-----------------------------------------------10\--| 
G|-8-8-8----8----8-8-8---8----5-5-5---5---7-7-7--8\---| 
D|----------------------------------------------------| 

D|--------------------------------------------| 
A|--------------------------------------------| 
F|--------------------------------------------| 
C|--------------------------------------------| 
G|-0-----2h3-2-----3h5-3-----0h3-2------0-----| 
D|---0-3-------0-3-------0-3--------0-3-------| 

D|--------------------------------------------------------------------| 
A|--------------------------------------------------------------------| 
F|-------12---10--------10---7---5---9--10----------------------------| 
C|----------------------10---7---5---9--10----3-2p0-----2p0-----------| 
G|-8-8-8----8----8-8-8---8---5---3---7---8----------3-2-----3-2-0-----| 
D|----------------------------------------------------------------3-0-| 

Chorus 2 

D|--------------------------------------------| 
A|--------------------------------------------| 
F|--------------------------------------------| 
C|------5----------------2--------------------| 
G|--2---3------------3---0---5-----2-----3----| 
D|--3-------1/10\1---1-------3-----0-----1----| 

D|-------------------------------------------------| 
A|-------------------------------------------------| 
F|-------------------------------------------------| 
C|-----------5-----------------2-------------------| 
G|-5-5-5-2---3---5-3-0---3-----0----5----2----3----| 
D|-3-3-3-3---------------1----------3----0----1----| 

D|---------------------------------------------------------------1---0h1p0-----------| 
A|-------------------------------------------------------------------------3---1p0---| 
F|--------5-----4h5p4p0----------------5----4h5p4p0--------------------------------0-| 
C|----7-------------------7p5------5----------------0-7p0--0-0-0---0---------0-------| 
G|--0---0----0----------0-----7------------------------------------------------------| 
D|-------------------------------3---3---3-------------------------------------------| 

D|-----------------------------------| 
A|----8---8----8------10---10--------| 
F|----9---9----9------10---10--------| 
C|----9---9----9------10---10--------| 
G|-7--7---7----7---8---8----8--------| 
D|-----------------------------------| 

D|---------------------------------------------------------------1---0h1p0-----------| 
A|-------------------------------------------------------------------------3---1p0---| 
F|--------5-----4h5p4p0----------------5----4h5p4p0--------------------------------0-| 
C|----7-------------------7p5------5----------------0-7p0--0-0-0---0---------0-------| 
G|--0---0----0----------0-----7------------------------------------------------------| 
D|-------------------------------3---3---3-------------------------------------------| 

D|---------------------------------------------------------------------------| 
A|----8---8----8------10---10---10--------12---12---12--------12---12---12---| 
F|----9---9----9------10---10---10--------12---12---12--------12---12---12---| 
C|----9---9----9------10---10---10--------12---12---12--------12---12---12---| 
G|-7--7---7----7---8---8----8----8---10---10---10---10---10---10---10---10---| 
D|---------------------------------------------------------------------------| 

D|----------------------------------------------------------------| 
A|-8---------------------------------------------0----------------| 
F|---10p9h10p9-9---------------------------------0-dive------2----| 
C|---------------12p10h12p9h10-10p9p7h9p7--------0-----------2----| 
G|----------------------------------------10-----------------0----| 
D|----------------------------------------------------------------|   

Bridge 

Accoustic part 
D|--5-----5-----5-----5-----5-----3-----5-----5-----| 
A|--5-----5-----5-----5-----5-----3-----5-----5-----| 
F|--5-----5-----5-----5-----5-----4-----5-----5-----| 
C|-----7-----7-----7-----7-----7-----5-----7-----7--| 
G|--------------------------------------------------| 
D|--------------------------------------------------| 

D|--5-----5-----5-----5-----5-----3-----2-----2-----| 
A|--5-----5-----5-----5-----6-----3-----3-----3-----| 
F|--5-----5-----5-----5-----5-----4-----2-----2-----| 
C|-----7-----7-----7-----7-----5--------------------| 
G|--------------------------------------------------| 
D|--------------------------------------------------| 

D|--1-----1-----3-----0----5-----5-----5-----5-----| 
A|--1-----1-----3-----1----5-----5-----5-----5-----| 
F|--2-----2-----4-----2----5-----5-----5-----5-----| 
C|----------------------------7-----7-----7--------| 
G|-------------------------------------------------| 
D|-------------------------------------------------| 

D|-----5-----5-----3-----0----5---| 
A|-----6-----6-----3-----1----5---| 
F|-----5-----5-----4--0--2----5---| 
C|-7-5----------------------------| 
G|--------------------------------| 
D|--------------------------------| 

Guitar 1  
D|----15--14-------------------------------------------------| 
A|------------17-15-17---------------15----------------------| 
F|--14~-------------------14-16-17------17-16-14-12-12/14~---| 
C|-----------------------------------------------------------| 
G|-----------------------------------------------------------| 
D|-----------------------------------------------------------| 

D|----15---14-15-15/17---------------------------------------| 
A|---------------------17-------------15---------------------| 
F|-14~---------------------14-16-17------17-16-14-12-12/14~--| 
C|-----------------------------------------------------------| 
G|-----------------------------------------------------------| 
D|-----------------------------------------------------------| 

D|----------------------------------| 
A|-------------15-------------------| 
F|-14-16-17~------17-16-12--12/14~--| 
C|----------------------------------| 
G|----------------------------------| 
D|----------------------------------| 

D|-----------------------------------------------------| 
A|-----------------15-17-15h17p15/13--13--12-----------| 
F|-14-16-17~---17----------------------------12-12/14~-| 
C|-----------------------------------------------------| 
G|-----------------------------------------------------| 
D|-----------------------------------------------------| 

D|--------------------------------------| 
A|--------------------------------------| 
F|--------------------------------------| 
C|---------2------------------------7---| 
G|-1/12\1--0-----0------3-----5-----5---| 
D|-1/12\1-----------3---1-----3---------| 

Guitar 2  
D|--------------------------------------------| 
A|--------------------------------------------| 
F|--------------------------------------------| 
C|------5--4----------------------------------| 
G|-----------7-5-7------------5---------------| 
D|--/5~---------------5-7-8~----8-7-5-3-3/5~--| 

D|--------------------------------------------| 
A|--------------------------------------------| 
F|--------------------------------------------| 
C|------5--4-5-5/7----------------------------| 
G|-----------------7----------5---------------| 
D|--/5~---------------5-7-8~----8-7-5-3-3/5---| 

D|---------------------------| 
A|---------------------------| 
F|---------------------------| 
C|---------------------------| 
G|---------5-----------------| 
D|-5-7-8~-----8-7-3--3/5~----| 

D|---------------------------------------| 
A|---------------------------------------| 
F|---------------------------------------| 
C|---------------------------------------| 
G|------------5-7-5h7p5/3-3-2------------| 
D|-5-7-8~---8------------------5-3-3/2~--| 

Guitar 3 
D|-------------------------------| 
A|-------------------------------| 
F|-------------------------------| 
C|--2------------------------7---| 
G|--0-----0------3-----5-----5---| 
D|-----------3---1-----3---------| 

D|------------------------------| 
A|------------------------------| 
F|------------------------------| 
C|------------------2-----------| 
G|--3-----5----2----0-----0-----| 
D|--1-----3----0------------3---| 

D|-----------------------| 
A|-----------------------| 
F|-----------------------| 
C|------------------2----| 
G|--3-----5----2----0----| 
D|--1-----3----0---------| 


Instrumental part 

Accoustic Part 
D|-----------------------------------| 
A|-----------------------------------| 
F|---2---2---2---2---2---2---2---2---| 
C|-2---2---2---2---2---2---2---2-----| 
G|-----------------------------------| 
D|-----------------------------------| 

Guitar 1 
D|---------------------------------------------------------------------------| 
A|---------------------------------------------------------------------------| 
F|-------------11-12-11-----11-------------------11-12-11----11-12-11--------| 
C|-12-0-0-14-0----------14-----14-12-12-0-0-14-0----------14----------14-12--| 
G|---------------------------------------------------------------------------| 
D|---------------------------------------------------------------------------| 

D|---------------------------------------------------------------------------| 
A|---------------------------------------------------------------------------| 
F|--------------11-12-11-----11-------------------11-12-11----14-12-11-------|x7  
C|-12-0-0-14-0----------14-----14-12-12-0-0-14-0----------14-----------------| 
G|---------------------------------------------------------------------------| 
D|---------------------------------------------------------------------------| 

D|-------------------------------| 
A|-------------------------------| 
F|-------------------------------|x3 
C|-12-0-0-14-0-0-12-0-0-14-0-0---| 
G|-------------------------------| 
D|-------------------------------| 

D|-------------------------------| 
A|-------------------------------| 
F|-------------------------------| 
C|-12-0-0-14-0-0-16-0-0-14-0-0---| 
G|-------------------------------| 
D|-------------------------------| 

D|-----------------------------------------------------------| 
A|-----------------------------------------------------------| 
F|--------------14-14~---------------------------------------| 
C|-16-0-0-16-17---------11-12-0-0-11----11-12-11h12p11-------| 
G|-----------------------------------12---------------14-----| 
D|-----------------------------------------------------------| 

D|-----------------------------------------------------------| 
A|-----------------------------------------------------------| 
F|--------------14-14~---------------------------------------| 
C|-16-0-0-16-17---------11-12-0-0-11----11-12----------------| 
G|-----------------------------------12----------------------| 
D|-----------------------------------------------------------| 

D|-----------------------------------------------------------| 
A|-----------------------------------------------------------| 
F|--------------14-14~---------------------------------------| 
C|-16-0-0-16-17---------11-12-0-0-11----11-12-11h12p11-------| 
G|-----------------------------------12---------------14-----| 
D|-----------------------------------------------------------| 

D|--------------------------------------------------------------| 
A|--------------------------------------------------------------| 
F|--------------14-14~------------------------------------------| 
C|-16-0-0-16-17----------11-12-11----11-------------------------| 
G|--------------------------------14----14-12-14-12-10-12-10-9--| 
D|--------------------------------------------------------------| 

D|--------------------------------------------| 
A|--------------------------------------------| 
F|-9-----9-----9-----11-----9-----9-----9-----| 
C|---7-7---7-7---7-7----7-7---7-7---7-7-------| 
G|--------------------------------------------| 
D|--------------------------------------------| 

D|----------------------------------------------------------| 
A|----------------------------------------------------------| 
F|-9-----9-----9-----11-----10-9---------9------------------| 
C|---7-7---7-7---7-7----7-7------12-10-9---12-10-9-7--------| 
G|---------------------------------------------------10-7---| 
D|----------------------------------------------------------| 

Guitar 2 
D|---------------------------------------------------------------------------| 
A|---------------------------------------------------------------------------| 
F|---------------------------------------------------------------------------| 
C|-7----7--7----7-----7--7----7-7-7----7--7----7-----7--7---5p4---7-5-4------| 
G|-5----5--5----5-----5--5----5-5-5----5--5----5-----5--5-------7------------| 
D|---------------------------------------------------------------------------| 

D|-------------------------------------------------| 
A|-------------------------------------------------| 
F|-------------------------------------------------| 
C|-7-7---7-7---------------------------------------| 
G|-5-5---5-5---7-7---7-7---4-4---4-4---5-5---5-5---| 
D|-------------5-5---5-5---2-2---2-2---3-3---3-3---| 

D|------------------------------------------------------| 
A|------------------------------------------------------| 
F|------------------------------------------------------| 
C|--7-7----7-7--------------4-4---4-4-------------------| 
G|--5-5----5-5---7-7--7-7---2-2---2-2-------------------| 
D|---------------5-5--5-5--------------3-3-3-3-3-3-3----| 

D|-------------------------------------------------| 
A|-------------------------------------------------| 
F|-------------------------------------------------| 
C|-7-7---7-7---------------------------------------| 
G|-5-5---5-5---7-7---7-7---4-4---4-4---5-5---5-5---| 
D|-------------5-5---5-5---2-2---2-2---3-3---3-3---| 

D|------------------------------------------------------| 
A|------------------------------------------------------| 
F|------------------------------------------------------| 
C|--7-7----7-7--------------4-4---4-4-------------------| 
G|--5-5----5-5---7-7--7-7---2-2---2-2-------------------| 
D|---------------5-5--5-5--------------3-3-3-3-3-3-3----| 

D|----------------------------------| 
A|----------------------------------| 
F|----------------------------------| 
C|--4---2------------4-----2--------| 
G|--2---0----4---5-----0-0---0-0----| 
D|-----------2---3------------------| 

D|--------------------| 
A|--------------------| 
F|--------------------| 
C|--7-------4---------|x4 
G|--5---7---2---5-----| 
D|------5-------3-----| 

D|-----------------------------------------| 
A|-----------------------------------------| 
F|-----------------------------------------| 
C|-2-----2-----2-----4-----2-----2-----2---| 
G|---0-0---0-0---0-0---0-0---0-0---0-0-----| 
D|-----------------------------------------| 

D|---------------------------------------------------| 
A|---------------------------------------------------| 
F|---------------------------------------------------| 
C|-2-----2-----2-----4------3-2-------2--------------| 
G|---0-0---0-0---0-0---0-0------5-3-2---5-3-2-0------| 
D|----------------------------------------------3-0--| 

Chorus 3 

D|--------------------------------------------| 
A|--------------------------------------------| 
F|--------------------------------------------| 
C|------5----------------2--------------------| 
G|--2---3------------3---0---5-----2-----3----| 
D|--3-------1/10\1---1-------3-----0-----1----| 

D|-------------------------------------------------| 
A|-------------------------------------------------| 
F|-------------------------------------------------| 
C|-----------5-----------------2-------------------| 
G|-5-5-5-2---3---5-3-0---3-----0----5----2----3----| 
D|-3-3-3-3---------------1----------3----0----1----| 


D|---------------------------------------------------------------1---0h1p0-----------| 
A|-------------------------------------------------------------------------3---1p0---| 
F|--------5-----4h5p4p0----------------5----4h5p4p0--------------------------------0-| 
C|----7-------------------7p5------5----------------0-7p0--0-0-0---0---------0-------| 
G|--0---0----0----------0-----7------------------------------------------------------| 
D|-------------------------------3---3---3-------------------------------------------| 

D|-----------------------------------| 
A|----8---8----8------10---10--------| 
F|----9---9----9------10---10--------| 
C|----9---9----9------10---10--------| 
G|-7--7---7----7---8---8----8--------| 
D|-----------------------------------| 

D|---------------------------------------------------------------1---0h1p0-----------| 
A|-------------------------------------------------------------------------3---1p0---| 
F|--------5-----4h5p4p0----------------5----4h5p4p0--------------------------------0-| 
C|----7-------------------7p5------5----------------0-7p0--0-0-0---0---------0-------| 
G|--0---0----0----------0-----7------------------------------------------------------| 
D|-------------------------------3---3---3-------------------------------------------| 


D|---------------------------------------------------------------------------| 
A|----8---8----8------10---10---10--------12---12---12--------12---12---12---| 
F|----9---9----9------10---10---10--------12---12---12--------12---12---12---| 
C|----9---9----9------10---10---10--------12---12---12--------12---12---12---| 
G|-7--7---7----7---8---8----8----8---10---10---10---10---10---10---10---10---| 
D|---------------------------------------------------------------------------| 

Outro 

D|----------------------------------------------------------| 
A|-8--------------------------------------------------------| 
F|---10p9h10p9-9---------------------------------0-----2----| 
C|---------------12p10h12p9h10-10p9p7h9p7--------0-----2----| 
G|----------------------------------------10-----------0----| 
D|----------------------------------------------------------| 



************************************ 

| h   Hammer-on 
| /   Slide up 
| ~   Vibrato 
| p   Pull-off 
| b   Bend 
| br  Bend release 
| \   Slide down 
| x   Dead note 

************************************ 
	  

Search Paypal
auto scroll beats size up size down change color hide chords drawings
tab show chords e-chords YouTube Clip e-chords hide all tabs e-chords go to top tab