Edguy

home > Edguy

For a trace of life Tab

Edguy

Difficulty: IntermediateIntermediate

by eduardo%5Flyvio

tuner correct add songbook print version text version save to e-mail
chordsukulelecavacokeyboardtabbassdrumsharmonicsflute Guitar Pro
chords

For a trace of life

  		Trancribed by:  Niklas Lehto      
[email protected]               

 
*Disable word wrap under edit to view this document correctly! 
 
h  = hammer on             .   = Palm mute 
p  = pull off              A.H = Artificial harmonics 
b  = Bend                  pb  = prebend 
r  = release bend          s   = slide 
 
All guitars are 1/2 downed 
 
 
{Intro:} 
 
Abm E Gb eb||--------------------------------| 
         Bb||--------------------------------| 
         Gb||--------0---------------0-------| 
         Db||----2-------2-------0-------0---| 
         Ab||3---------------2---------------| 
         Eb||--------------------------------| 
           ||                                | 
         eb||--------------------------------| 
         Bb||--------1---------------1-------| 
         Gb||----0-------0-------0-------0---| 
         Db||2---------------0---------------| 
         Ab||--------------------------------| 
         Eb||--------------------------------| 
 
 
Abm E Ebm eb||------------3-------------------| 
          Bb||------------1-------0-----------| 
          Gb||--------0---0-----------0-------| 
          Db||----0-------0---------------0---| 
          Ab||--------------------------------| 
          Eb||3-------------------------------| 
 
Repeat chord progression over the following lead-stuff: 
 
eb||---------------------------------------------------------------------------| 
Bb||0-0h1-1-1s3-3-3s5-5-5s6--6------10-8h-10p-8--8------6s8---6-5--6---5-------| 
Gb||-----------------------------------------------------------------------7---| 
Db||---------------------------------------------------------------------------| 
Ab||---------------------------------------------------------------------------| 
Eb||---------------------------------------------------------------------------| 
  ||                                                                           | 
eb||----------------------------------------------------5s7---5----5-----------| 
Bb||3-3s5-5-5s6-6-6s8-8-8s10-10-----13-12h-13p-12-12-------------8-----8---6---| 
Gb||---------------------------------------------------------------------------| 
Db||---------------------------------------------------------------------------| 
Ab||---------------------------------------------------------------------------| 
Eb||---------------------------------------------------------------------------| 
 
eb||-------------------------------------------------------| 
Bb||0-0h1-1-1s3-3-3s5-5-5s6--6s8------6-p5-5----6---5------| 
Gb||-------------------------------------------------------| 
Db||-------------------------------------------------------| 
Ab||-------------------------------------------------------| 
Eb||-------------------------------------------------------| 
  ||                                                       | 
eb||-------------------------------------------------------| 
Bb||3-3s5-5-5s6-6-6s8-8-8s10-10s13----10-p8-8---10--8------| 
Gb||-------------------------------------------------------| 
Db||-------------------------------------------------------| 
Ab||-------------------------------------------------------| 
Eb||-------------------------------------------------------| 
 
 
{Verse:} 
 
Same chord progression as in intro, I put out the chords anyway. 
I'm not sure of the lyrics though. 
 
Abm                  E 
  Don't know where I come from 
Gb                    B  Gb 
  Don't know where to go. 
Abm               E 
  Don't know if I know 
          Ebm        Gb 
  What is good to be known. 
 
I wonder with/if madness 
Is just a child of my urge to know. 
The more that I ask 
The more I get down 
 
{Bridge:} 
 
This part has some errors in it... Second guitar is probably one octave higher. 
There's also a third guitar harmony, but it's almost identical to the first one, 
insted of picking strings Ab Gb Bb in the B chord pick Ab Db Gb. 
 
       Dbm     B       E       Abm     Gb 
eb||--|--------------------------------------3-------------------------| 
Bb||--|----3-------1-------1-------1---------1---0-----------1---0-----| 
Gb||--|--2---2---0---0---2---2---2---2-----0-------0-------0-------0---| 
Db||0-|0---------------3-----------------0-----------0---0-----------0-| 
Ab||--|--------3---------------0---------------------------------------| 
Eb||--|--------------------------------3---------------3---------------| 
  ||                                                                   | 
eb||--|--1-------0-----1---1-----0-------------------------------------| 
Bb||--|----3-------1---------1-----1---------0-1p0-----------0-1p0-----| 
Gb||--|------2-------0---------------2-----0-------0-------0-------0---| 
Db||0-|0---------------------------------------------------------------| 
Ab||--|--------3---------------0---------------------------------------| 
Eb||--|--------------------------------3---------------3---------------| 
 
    A million times my quest for life is pain 
  But still it has not made me going insane 
 
{Chorus:} 
 
Abm     Emaj7/Ab Abm Gb     Gbsus4 Gb 
  And I l-o-ng   for more. 
Abm     E     B  Gb     Gbsus4 Gb 
  For a trace of life. 
Dbm       A    Dbm B       Bsus4 B 
  Tearing down all doors. 
Dbm     A     Dbm B 
  For a trace of  life. 
 
 
{Verse:} 
 
You tell me you wonder 
If wondering is heaven or hell 
You say that you've got the view 
On the dark side of life 
 
You can't see the shadows the others can see 
but you can see it's well 
the sun and the day 
the light in the sky 
 
{Bridge:} 
 
A million times your quest for life has been pain 
but still it is the key to make you sain 
 
{Chorus:} 
 
And I long for more. 
For a trace of life. 
Tearing down all doors. 
For a trace of life. 
	  

Full key step upFull key step up
Half key step upHalf key step up
Half key step downHalf key step down
Full key step downFull key step down
Search Paypal
auto scroll beats size up size down change color hide chords drawings
tab show chords e-chords YouTube Clip e-chords hide all tabs e-chords go to top tab