Edge Of Sanity

Jesus Cries

Edge Of Sanity

tabs

by  TAMAMOREIRA

save to print version add songbook text version e-mail correct tuner
chordsukulelecavacokeyboardtabbassdrumsharmonicaflute Guitar Pro
close

there isn't a video lesson for this song

chords

Jesus Cries

	  		
   GUITAR 1.                               GUIT.2                 GUIT.3 
|-------------------------------------i----------------------i----------------------| 
|-------------------------------------i----------------------i----------------------| 
|-------------------------------------i-------------4--------i----------------------| INTRO 
|------------5-4--------------5-4-----i---2------4------5-4--i--2-----3---2---3-7---| 
|--7--5--7-------5---7--5--7-------5--i-------5--------------i--2-----3---2---3-7---| 
|-------------------------------------i----------------------i--0-----1---0---1-5---| 




|---------------------------------------------------------------------------| 
|---------------------------------------------------------------------------| 
|---------------------------------------------------------------------------| 
|----------------------5--3-2-----------------------------------------------| VERSE 
|-----3-----3-------3--------------3----3----2--3--5------------------------| 
|--5-----5-------5--------------5----5-------0--1--3------------------------| 


|----------------------------------------------------------------------------------------------| 
|----------------------------------------------------------------------------------------------| 
|-------------------------------------------------------------------------------------7--------|PRE- Chorus  
|------9-10-------9-10--------9-10----7---9-10--------9-10-----9-10--------9-10---7------10----| 
|--7----------8----------10-----------------------7---------8---------10-----------------------| 
|----------------------------------------------------------------------------------------------| 

            REPEAT VERSE! 
                  Pre-Chorus 


|-------------------------------------------------------------------------------| 
|---------------------7------------7-------9-------------9--------10p9h10-------| 
|--7---------7-----------8------8-----8-------10-----10-----10-------------10---| INTERLUDE 
|-----8----8----8-----------10--------------------12----------------------------| 
|-------10----------------------------------------------------------------------| 
|-------------------------------------------------------------------------------| 


|--------------------------------------------------------------------------------------| 
|----------------------------------------------------------------------------8-7-------| 
|-------------------------------------------------------------------5--7--9------------| BRIDGE 
|--5---------9--8--5----------4-3----5---------9-8-3-------3---------------------------| 
|--3--5--2---7--6--3--2--3-5--2-1----3--5--2---7-6-1--2-3--3--1--2---------------------| 
|-----3--0------------0--1-3------------3--0----------0-1-----1--0---------------------| 


|----------------------------------------------------------------------------------------| 
|------------2X--------4---------7-------------------------4---------7-------------------| Chorus! 
|---------------------------5------------------------------------5-----------------------|GROOVE PART 
|--2-2---2-2--------7--------------------------------7-----------------------------4-3---| 
|--2-2---2-2----------------------------------------------------------------2-3-5--2-1---| 
|--0-0---0-0------------------------0-0-0--0--0-0-0-------------------------0-1-3--------| 


        REPEAT VERSE FIGURE 
            Pre-Chorus! 

|---------------------------------------------------------------------------| 
|---------------------------------------------------------------------------| 
|---------------------------------------------------------------------------| HARMONY FIGURE 
|-----------7--8-7-------5-7-tr---------------------------------------------| 
|--------8---------8--5----------8--5h-6-6----------------------------------| 
|---10----------------------------------------------------------------------| 



|------------------------------------------------------------------------------------| 
|-----------------------------------------------------------------12-etc.--noise-----|END SECTION + ENDING 
|-------------------------7--8-8----------9---8------------12-11---------------------|              FILL 
|--5----5-5----5-5---3----7--8-8------7-----------10--10-----------------------------| 
|--5----5-5----5-5---3----5--6-6-----------------------------------------------------| 
|--3--3-3-3--3-3-3---1---------------------------------------------------------------| 
		  

See also:

tabs Ira! - Envelheço Na Cidade(Solo - Acustivo Mtv) tabs Deep Purple - No No No tabs Deep Purple - Black Night tabs Deep Purple - Smoke on the water(ver. 2) tabs Deep Purple - Since Youve Been Gone tabs Albert Hammond Jr - In My Room
e-chords

Other versions:

tabs Edge Of Sanity - Jesus Cries
auto scroll beats size up size down change color hide chords drawings
tab show chords e-chords YouTube Clip e-chords hide all tabs e-chords go to top tab

share