Edenbridge

Empire Of The Sun

Edenbridge

tabs

by  VICTBORGES

save to print version add songbook text version e-mail correct tuner
chordsukulelecavacokeyboardtabbassdrumsharmonicaflute Guitar Pro
close

there isn't a video lesson for this song

chords

Empire Of The Sun

(Edenbridge)

	  		(00:07) 
e|--------b----rb-----|---------------------|----------------------------| 
B|12--15--15---15--12-|------b--------------|----------------------------| 
G|--------------------|12--14---14----------|------s--------------s------| 
D|--------------------|--------------12--12-|12--14\17--14--17--14\12--14| 
A|--------------------|---------------------|----------------------------| 
E|--------------------|---------------------|----------------------------| 
                                  (00:40) 
e|--------------------------------|---------b----rb-----|-------------------| 
B|---------b---rb-----------------|-12--15--15---15--12-|---------br--------| 
G|----12--12---12-----------------|---------------------|-12--14--14--12--14| 
D|-14--------------12--14-\---9-9-|---------------------|-------------------| 
A|--------------------------------|---------------------|-------------------| 
E|--------------------------------|---------------------|-------------------| 
          (00:55) 
e|--------|------------------------------|----------------------------------| 
B|-br-----|------------------------------|---------b---rb-------------------| 
G|-14-----|-------s--------------s-------|----12--12---12-----------------br| 
D|----12--|-12--14\17--14--17--14\12--14-|-14--------------14--16--14--16-16| 
A|--------|------------------------------|----------------------------------| 
E|--------|------------------------------|----------------------------------| 
(01:10)                 b hold   rb 
e|----------12----14----14-----|-14-----------------------------b----|-br---| 
B|----12-------12----12--------|----12----------br---------15-15--15-|-15---| 
G|-11----11--------------------|--------12--14--14--12--14-----------|----14| 
D|-----------------------------|-------------------------------------|------| 
A|-----------------------------|-------------------------------------|------| 
E|-----------------------------|-------------------------------------|------| 
(01:26)                   b hold  rb 
e|----------12----14----14--|----14---------------------------------------| 
B|----15--------------------|-------13----------br---------s-------s------| 
G|-14----14----14----14-----|-----------14--16--16--14--16-\-21-21-\-16---| 
D|--------------------------|---------------------------------------------| 
A|--------------------------|---------------------------------------------| 
E|--------------------------|---------------------------------------------| 
               (01:47) 
e|-------------|---------b--r--b--r--b--r------|----------b--b--hold--r----| 
B|-----br------|-12--15--15----------------12--|-12--15--15-15-------------| 
G|--9--11------|-------------------------------|---------------------------| 
D|--------9-9--|-------------------------------|---------------------------| 
A|-------------|-------------------------------|---------------------------| 
E|-------------|-------------------------------|---------------------------| 

e|---------------------------|-------------------------------|------------| 
B|------br-----------br------|-------------------------------|--------b---| 
G|-12--14---12--14---14------|-------s--------------s--------|----12--12--| 
D|-----------------------12--|-12--14\17--14--17--14\12--14--|-14---------| 
A|---------------------------|-------------------------------|------------| 
E|---------------------------|-------------------------------|------------| 
                             (02:20)                   b    b  b   rb 
e|----------------------------|-----------12----14----14---14-14--14-----| 
B|-rb-------------------------|-----12-------12----12----------------12--| 
G|-12-------br---------br-----|--11----11--------------------------------| 
D|----14--16---14--16--16-----|------------------------------------------| 
A|-------------------------14-|------------------------------------------| 
E|----------------------------|------------------------------------------| 
                                                              b   b  b 
e|--------------------------br--br-----|----------12----14----14---14-14--| 
B|----------br---------15-15---15------|----15----------------------------| 
G|--12--14--14--12--14-------------14--|-14----14----14----14-------------| 
D|-------------------------------------|----------------------------------| 
A|-------------------------------------|----------------------------------| 
E|-------------------------------------|----------------------------------| 
  rb 
e|14------------------------------------|------------------------14-14------| 
B|---13---------br---------s-------s----|----br------------12-12-------12-12| 
G|------14--16--16--14--16-\-21-21-\-16-|-9--11------11-11------------------| 
D|--------------------------------------|-------9-9-------------------------| 
A|--------------------------------------|-----------------------------------| 
E|--------------------------------------|-----------------------------------| 
(02:53)                 br                         br 
e|-15--17--19--19--17--19-----------br-|--15--17--17--15--17---------br--| 
B|-------------------------15-15--15---|---------------------15-15--15---| 
G|-------------------------------------|---------------------------------| 
D|-------------------------------------|---------------------------------| 
A|-------------------------------------|---------------------------------| 
E|-------------------------------------|---------------------------------| 
                                        s     br 
e|---h--brp--------|------15-----------15\17--17----------br----------h-----| 
B|-15-17---15------|---13----13-----13----------16--15-16-16--15-15-13-15-15| 
G|-------------17--|12-----------12-----------------------------------------| 
D|-----------------|--------------------------------------------------------| 
A|-----------------|--------------------------------------------------------| 
E|-----------------|--------------------------------------------------------| 
(03:18) 
e|----------------------------------------br--|----15----17----15-----------| 
B|--------------------12-12-----------15--15--|-15----15----15----15-hold---| 
G|-12-12--14-14-------------12-12--14---------|-----------------------------| 
D|--------------12-12-------------------------|-----------------------------| 
A|--------------------------------------------|-----------------------------| 
E|--------------------------------------------|-----------------------------| 
                       br                         br 
e|-15--17--19--19--17--19-----------br-|--15--17--17--15--17---------br--| 
B|-------------------------15-15--15---|---------------------15-15--15---| 
G|-------------------------------------|---------------------------------| 
D|-------------------------------------|---------------------------------| 
A|-------------------------------------|---------------------------------| 
E|-------------------------------------|---------------------------------| 
                                (03:42)              br 
e|---h--brp--------|-------------|--------------15--15-|--------------15----| 
B|-15-17---15------|--------s----|---13--15--16--------|---13--15--16-------| 
G|-------------17--|--12--14\15--|-12--12--12----------|-12--12--12---------| 
D|-----------------|-------------|---------------------|--------------------| 
A|-----------------|-------------|---------------------|--------------------| 
E|-----------------|-------------|---------------------|--------------------| 
           br 
e|-14-15-15-15------|------------------------------------------------| 
B|--------------15--|----------br---------15-15--------------s-------| 
G|------------------|--12--14--14--12--14-------14-14--14--12\11-----| 
D|------------------|---------------------------------------------12-| 
A|------------------|------------------------------------------------| 
E|------------------|------------------------------------------------| 
(04:03)              b  b  br                            br 
e|-------15----17--17--17-17-----|--18--20--22--22--20-22----------- br-| 
B|---15-----15---------------15--|-------------------------18--18---18--| 
G|-14--14------------------------|--------------------------------------| 
D|-------------------------------|--------------------------------------| 
A|-------------------------------|--------------------------------------| 
E|-------------------------------|--------------------------------------| 
          b  br                                                        s 
e|18--20--20--20-18--20--------br|---h--brp------|------18---------18-18\20-| 
B|----------------------18--18-18|-18-20---18----|---16----16----16---------| 
G|-------------------------------|------------20-|15----------15------------| 
D|-------------------------------|---------------|--------------------------| 
A|-------------------------------|---------------|--------------------------| 
E|-------------------------------|---------------|--------------------------| 
  br 
e|-20-----------br----------h------|-----------------------------------br--| 
B|----19--18-19-19--18-18-16-18-18-|--------------------15-15----------18--| 
G|---------------------------------|-15-15--17-17-------------15-15-17-----| 
D|---------------------------------|--------------15-15--------------------| 
A|---------------------------------|---------------------------------------| 
E|---------------------------------|---------------------------------------| 
                              (04:38)                br 
e|----18----20----18----------|-18--20--22--22--20-22----------- br---| 
B|-18----18----18----18-hold--|------------------------18--18---18----| 
G|----------------------------|---------------------------------------| 
D|----------------------------|---------------------------------------| 
A|----------------------------|---------------------------------------| 
E|----------------------------|---------------------------------------| 
            b  br 
e|--18--20--20--20-18--20--------br|---h--brp-------|-------------| 
B|------------------------18--18-18|-18-20---18-----|--------s----| 
G|---------------------------------|-------------20-|--15--17\18--| 
D|---------------------------------|----------------|-------------| 
A|---------------------------------|----------------|-------------| 
E|---------------------------------|----------------|-------------| 
                  br                     b  rb 
e|--------------18-18-|-------------18-17-18-18----|-------br------s-----s--| 
B|--16--18--19--------|---16--18--19------------18-|-15-17-17-15-17\22-22\17| 
G|15--15--15--15------|-15--15--15-----------------|------------------------| 
D|--------------------|----------------------------|------------------------| 
A|--------------------|----------------------------|------------------------| 
E|--------------------|----------------------------|------------------------| 

e|---hold-----------|-------------------------| 
B|-17-----15-14-15--|-------h------------s----| 
G|------------------|-10--10-12--10--8-7-\-3--| 
D|------------------|-------------------------| 
A|------------------|-------------------------| 
E|------------------|-------------------------| 
		  

See also:

tabs Van Halen - Pretty Woman tabs Aerosmith - Dream On tabs Mr. Big - To Be With You tabs Jack Johnson - Sitting Waiting Wishing tabs The Offspring - Come Out and Play tabs Guns N' Roses - Sweet Child o' mine
e-chords

Other versions:

tabs Edenbridge - Empire Of The Sun
auto scroll beats size up size down change color hide chords drawings
tab show chords e-chords YouTube Clip e-chords hide all tabs e-chords go to top tab

share