Ed Sheeran

home > Ed Sheeran

We Found Love Acoustic Cover Tab

Ed Sheeran

Difficulty: BeginnerBeginner

by PAULLET3

tuner correct add songbook print version text version save to e-mail
chordsukulelecavacokeyboardtabbassdrumsharmonicsflute Guitar Pro
chords

We Found Love Acoustic Cover

  		


                             (hammer on only during intro) 

e|-------------------------|-----------------------------|-- 
B|-------3--------3--------|--------3-----------3--------|-- 
G|----0--------0--------0--|-----0------ H --0--------0--|-- 
D|----------2--------2-----|-----------0--2--------0-----|-- 
A|-------------------------|--3--------------------------|-- 
E|--0----------------------|-----------------------------|-- 


              G                           G 

e|--------------------------|----------------------------|-- 
B|--------3--------3--------|--------3--------3----------|-- 
G|-----0--------0--------0--|-----0--------0--------0----|-- 
D|-----------0--------0-----|-----------0--------0-------|-- 
A|--------------------------|----------------------------|-- 
E|--3-----------------------|--3-------------------------|-- 


=========================================== 
BRIDGE  from -alive... is the way...-  
=========================================== 

Emin7           Cadd9           G   (as previously played)                  


             D 

e|-----------2--------------| 
B|--------3--------3--------| 
G|-----2--------2--------2--| 
D|--0-----------------0-----| 
A|--------------------------| 
E|--------------------------| 

=========================================== 
Chorus 
=========================================== 

            Emin                                D11 
(numbers indicates suggested             
fingers on fret) 

             (2)      (4) 
e|--------------------------|--------------------------|-- 
B|--------0--------0--------|--------3--------3--------|-- 
G|-----0--------0--------0--|-----0--------0--------0--|-- 
D|-----------5--------------|-----------4--------------|-- 
A|--------------------7-----|--5-----------------5-----|-- 
E|--0-----------------------|--------------------------|-- 


               G                                 C 


e|--------------------------|--------------------------|-- 
B|--------0--------0--------|--------1--------1--------|-- 
G|-----0--------0--------0--|-----0--------0--------0--|-- 
D|-----------0--------0-----|-----------2--------2-----|-- 
A|--------------------------|--3-----------------------|-- 
E|--3-----------------------|--------------------------|-- 



************************************ 
| h   hammer-on 
************************************ 
	  

Full key step upFull key step up
Half key step upHalf key step up
Half key step downHalf key step down
Full key step downFull key step down
Search Paypal
auto scroll beats size up size down change color hide chords drawings
tab show chords e-chords YouTube Clip e-chords hide all tabs e-chords go to top tab