Ed Sheeran

home > Ed Sheeran

Tenerife Sea Radio Tab

Ed Sheeran

Difficulty: nolevelnolevel

by aleffederico

tuner correct add songbook print version text version save to e-mail
chordsukulelecavacokeyboardtabbassdrumsharmonicsflute Guitar Pro
chords

Tenerife Sea Radio

  		

Chords: Intro: G, Am7, C 
   Pre-Chorus Am7, Am7, C, D 
               Am7,Am7, C, C, D  
       Chorus: G, Am7, C 
      Lumiere: Em, G, D, Cadd9 
               Em, G, D 

Tuning:EADGBe capo fret 2 

e|---------------------------------------------------------------------------| 
B|--------------3----------------1--------------1------------------0---------| 
G|--------0-----------------0--------------0-------------------0-------------| 
D|------0---0-------------2---2----------0---0------0h2p0----0---0-----------| 
A|-------------------0---------------3---------------------------------------| 
E|---3-----------------------------------------------------------------------| 
Intro: (Repeat as many times as you want) 
e|---------------------------2------------------------------------------------| 
B|-------------3---------3--------------3------------------------------------| 
G|--------0------------2---2--------0----------------------------------------| 
D|------2---2--------0------------2---2--------------------------------------| 
A|-----------------------------3---------------------------------------------| 
E|---0-----------------------------------------------------------------------| 
The singing starts after you finish this bar^(For the first verse this repeats) 
e|---------------------------------------------------------2-----------------| 
B|-------------1-------------1--------------1----------3---------------------| 
G|--------0-------------0---------------0------------2---2-------------------| 
D|------2---2---------2---2-----------2---2--------0-------------------------| 
A|--0--------------0---------------3-----------------------------------------| 
E|---------------------------------------------------------------------------| 
Start this at "Should this be..."^ (repeat twice) 
e|-----------------------------------------------------------2---------3-----| 
B|------------1----------1----------1----------1---------3---------3---------| 
G|-------0-----------0----------0----------0-----------2---2-----2---2-------| 
D|-----2---2-------2---2------2---2------2---2-------0---------0-------------| 
A|--0-----------0-----------3----------3-------------------------------------| 
E|---------------------------------------------------------------------------| 
"Cause all that you want..."^ 
e|----------2-------3-3-3-3-3--0-0-0-0-0--0---0--0--0--0--0--0--0------------| 
B|------3-----------3-3-3-3-3--1-1-1-1-1--1---1--1--1--1--1--1--1------------| 
G|----2---2---------0-0-0-0-0--0-0-0-0-0--0---0--0--0--0--0--0--0------------| 
D|--0---------------0-0-0-0-0--2-2-2-2-2--0h2-2--2--2--2--2--2--2------------| 
A|------------------2-2-2-2-2--0-0-0-0-0--3---3--3--3--3--3--3--3------------| 
E|------------------3-3-3-3-3--x-x-x-x-x--x---x--x--x--x--x--x--x------------| 
After this last D, Ed strums the Chorus: "So in love..." (DDUDU,DDUDU,DUUDUDUD) 
e|--3---------3---------2---------3------------------------------------------| 
B|--3---------3---------3---------3------------------------------------------| 
G|--0---------0---------2---------0------------------------------------------| 
D|--2---------0---------0---------2------------------------------------------| 
A|--2---------2---------x---------3------------------------------------------| 
E|--0---------3---------x---------x------------------------------------------| 
"Lumiere...darling" (just listen to how much he plays each chord same strumming pattern) 
e|--3-----3-----3-----2----------------------------------------------------------| 
B|--3-----3-----3-----3----------------------------------------------------------| 
G|--0-----0-----2-----2----------------------------------------------------------| 
D|--2-----0-----0-----0----------------------------------------------------------| 
A|--2-----2-----x-----x----------------------------------------------------------| 
E|--0-----3-----x-----x----------------------------------------------------------| 
"Lumiere over me" 

You should have all the pieces now :) mix and match fingerstyle with strumming and it 
will sound awesome! This was my first tab so be sure to rate it and tell me  
corrections if I did something wrong! 
ENJOY!:))) 
************************************ 

| /   slide up 
| \   slide down 
| h   hammer-on 
| p   pull-off 
| ~   vibrato 
| +   harmonic 
| x   Mute note 
| b   Bend 
| pb  Pre-bend 
| br  Bend release 
| pbr Pre-bend release 
| brb Bend release bend 

************************************ 
	  

Full key step upFull key step up
Half key step upHalf key step up
Half key step downHalf key step down
Full key step downFull key step down
Search Paypal
auto scroll beats size up size down change color hide chords drawings
tab show chords e-chords YouTube Clip e-chords hide all tabs e-chords go to top tab