Ed Sheeran

home > Ed Sheeran

Tenerife Sea Live (acoustic) Tab

Ed Sheeran

Difficulty: nolevelnolevel

by hugo%5Frodrigues

tuner correct add songbook print version text version save to e-mail
chordsukulelecavacokeyboardtabbassdrumsharmonicsflute Guitar Pro
chords

Tenerife Sea Live (acoustic)

  		 

Intro:* Em shape, B shape, then an open A (4th string,second fret) 

e|---------------------------------------------------------------------------| 
B|-------------------0---------0h2p0------0----------------------------------| 
E|------0--0------0---------0---------0--0-----------------------------------| 
D|-----2--2------4--4------2--2--------2-------------------------------------| 
A|----------------------0----------------------------------------------------| 
E|--0---------2--------------------------------------------------------------| (x3) 



e|---------------------------------------------------------------------------| 
B|--------0--------0--------0--------------------0---------------------------| 
E|-----0--------0--------0-----0--0--0--0----0--0----------------------------| 
D|----6--6-----4--4-----2--2----2--2--2--2----2------------------------------| 
A|--4--------2--------0------------------------------------------------------| 
E|---------------------------------------------------------------------------| 


e|---------------------------------------------------------------------------| 
B|-------------------0---------0h2p0------0----------------------------------| 
E|------0--0------0---------0---------0--0-----------------------------------| 
D|-----2--2------4--4------2--2--------2-------------------------------------| 
A|----------------------0----------------------------------------------------| 
E|--0---------2--------------------------------------------------------------| (x3) 

    Down your shoulders and backā?¦ 
e|---------------------------------------------------------------------------| 
B|--------0--------0--------0--------------------0---------------------------| 
E|-----0--------0--------0-----0--0--0--0----0--0----------------------------| 
D|----6--6-----4--4-----2--2----2--2--2--2----2------------------------------| 
A|--4--------2--------0------------------------------------------------------| 
E|---------------------------------------------------------------------------| 

 
e|---------------------------------------------------------------------------| 
B|-------------------0---------0h2p0------0----------------------------------| 
E|------0--0------0---------0---------0--0-----------------------------------| 
D|-----2--2------4--4------2--2--------2-------------------------------------| 
A|----------------------0----------------------------------------------------| 
E|--0---------2--------------------------------------------------------------| (x3) 

    No one knows anything but usā?¦ 
e|---------------------------------------------------------------------------| 
B|--------0--------0--------0--------------------0---------------------------| 
E|-----0--------0--------0-----0--0--0--0----0--0----------------------------| 
D|----6--6-----4--4-----2--2----2--2--2--2----2------------------------------| 
A|--4--------2--------0------------------------------------------------------| 
E|---------------------------------------------------------------------------| 


e|---------------------------------------------------------------------------| 
B|---------0---------0-----------0---------0---------------------------------| 
E|------0---------0-----------0---------0------------------------------------| 
D|-----2--2------2--2--------0--0------2--2----------------------------------| 
A|--0---------0-----------2---------4----------------------------------------| 
E|---------------------------------------------------------------------------| (x2) 

e|---------------------------------------------------------------------------| 
B|---------0---------0---------0---------0---------0-------------------------| 
E|------0---------0---------0---------0---------0----------------------------| 
D|-----2--2------2--2------2--2------2--2------4--4----4--4--4--4------------| 
A|--0---------0---------2---------2---------2---------2--2--2--2-------------| 
E|---------------------------------------------------------------------------| 



e|---------------------------------------------------------------------------| 
B|-------------------0---------0h2p0------0----------------------------------| 
E|------0--0------0---------0---------0--0-----------------------------------| 
D|-----2--2------4--4------2--2--------2-------------------------------------| 
A|----------------------0----------------------------------------------------| 
E|--0---------2--------------------------------------------------------------| (x3) 

e|---------------------------------------------------------------------------| 
B|-------------------0---------0--------------0------------------------------| 
E|------0--0------0---------0-----0--0----0--0-------------------------------| 
D|-----2--2------4--4------2--2----2--2----2---------------------------------| 
A|----------------------0----------------------------------------------------| 
E|--0---------2--------------------------------------------------------------| 

*Bridge:* B shape, A 
------------------------------------------------------------------------------------|     
Lu-mi-ere, da-rling. Lu-mi-ere o-ver me. 
e|----------------------------------------------------------------------------------| 
B|---------0---------0---------0---------0---------0---------0---------0---------0--| 
E|------0---------0---------0---------0---------0---------0---------0---------0-----| 
D|-----6--6------6--6------2--2------2--2------4--4------4--4------2--2------2--2---| 
A|--4---------4---------0---------0---------2---------2---------0---------0---------| 
E|----------------------------------------------------------------------------------|  thenā?¦ 

e|----------------------------------------------------------------------------------| 
B|---------0---------0---------0---------0---------0---------0---------0---------0--| 
E|------0---------0---------0---------0---------0---------0---------0---------0-----| 
D|-----6--6------6--6------2--2------2--2------4--4------4--4------4--4------4--4---| 
A|--4---------4---------0---------0---------2---------2---------2---------2---------| 
E|----------------------------------------------------------------------------------| 

 
	  

Full key step upFull key step up
Half key step upHalf key step up
Half key step downHalf key step down
Full key step downFull key step down
Search Paypal
auto scroll beats size up size down change color hide chords drawings
tab show chords e-chords YouTube Clip e-chords hide all tabs e-chords go to top tab