Ed Sheeran

home > Ed Sheeran

Run To The Hills Tab

Ed Sheeran

Difficulty: nolevelnolevel

by paulantunes

tuner correct add songbook print version text version save to e-mail
chordsukulelecavacokeyboardtabbassdrumsharmonicsflute Guitar Pro
chords

Run To The Hills

  		First bar: 
e|------------------------------------------------------------| 
B|-3h5-5-3----------------------------------------------------| 
G|-------------2-2-4-2----------------------------------------| 
D|------------------------------------------------------------| 
A|-0----------------------------------------------------------| 
E|---------1---1----------------------------------------------| 

Verse/Intro: 

e|------------------------------------------------------------| 
B|-3h5-5-3----------------------------------------------------| 
G|-------------2h4-4--2---------------------------------------| 
D|------------------------------------------------------------| 
A|-0------------------0---------------------------------------| 
E|-------1-----3----------------------------------------------| 

Chorus:  

e|------------------------------------------------------------| 
B|---0-0------2-2-----1-1-----0-0-----------------------------| 
G|---0-0------3-3-----0-0-----0-0-----------------------------| 
D|------------------------------------------------------------| 
A|------------------3---3-------------------------------------| 
E|-3---3----1---1----------3----3-----------------------------| 
	  

Search Paypal
auto scroll beats size up size down change color hide chords drawings
tab show chords e-chords YouTube Clip e-chords hide all tabs e-chords go to top tab