Eagles

Love Will Keep us Alive Tab

Eagles

Difficulty: ExpertExpert

tuner correct add songbook print version text version save to e-mail
chordsukuleleukulelecavacokeyboardtabbassdrumsharmonicsflute Guitar Pro
close

there isn't a video lesson for this song

request
chords

Love Will Keep us Alive

Year: 1994 - Album: Hell Freezes Over

(Capaldi / Carrack / Vale)

  		From: [email protected] (WHIRLED_PEAS)

Love Will Keep Us Alive - EAGLES
-----------------------
From  "Hell Freezes Over"
Written by Pete Vale/Jim Capaldi/Paul Carrack

Partially Transcribed by Taib Lokman (Nanyang Technological University)
Most of the work done by
Jeff Smith - [email protected] (SunnyVale)

- Right, this is probably way off, but don't take my word for it. I didn't
  tab this with accuracy in mind (it won't make a diff anyhow), just
  simplicity. Slide Solo, anyone ?
  Corrections,improvements ?, please email.

4/4 Timing.

VERSE :
-------
  |----------------- Fill I ------------------------|
  Asus2                      Asus2
e:-------0--------------0--|-------0--------------0--|
B:----------0--------0-----|----------0--------0-----|
G:----------------2--------|----------------2--------|
D:----2--------------------|----2--------------------|
A:-0-----------------------|-0-----------------------|
E:-------------------------|-------------------------|
...standing                  All alone...

  Esus4/F#                   Esus4/F#
e:-------0--------------0--|-------0--------------0--|
B:----------0--------0-----|----------0--------0-----|
G:----------------2--------|----------------2--------|
D:----2--------------------|----2--------------------|
A:-------------------------|-------------------------|
E:-2-----------------------|-2-----------------------|
...world outside

  E7sus4/B                   E7sus4/B
e:-------0--------------0--|-------0--------------0--|
B:----------0--------0-----|----------0--------0-----|
G:----2-----------2--------|----2-----------2--------|
D:-------------------------|-------------------------|
A:-2-----------------------|-2-----------------------|
E:-------------------------|-------------------------|  End of VERSE
...searching..                  ...for a place...

 |------------------- Fill II ----------------------|
  E                          E
e:-------0--------------0--|--------------------0----|
B:----------0--------0-----|----------0------0-------|
G:----------------1--------|-------1-----1h2------2--|
D:----2--------------------|----2--------------------|
A:-------------------------|-------------------------|
E:-0-----------------------|-0-----------------------|
...hide

 |------- Fill III -------|
e:-------0-----------0-----|
B:----------1-----------1--|
G:----------------2--------|
D:----2--------------------|
A:-------------2-----------|
E:-0-----------------------|
   Love    ....keep

CHORUS:
-------
  D                          D
e:-------2--------------2--|--------2--------------2--|
B:----------3--------3-----|-----------3--------3-----|
G:----2-----------2--------|-----2-----------2--------|
D:-0-----------------------|--0-----------------------|
A:-------------------------|--------------------------|
E:-------------------------|--------------------------|
 ..die for you..            ..highest mountain

  F#m                        F#m
e:-------2--------------2--|--------2--------------2--|
B:----------2--------2-----|-----------2--------2-----|
G:----------------2--------|-----------------2--------|
D:----4--------------------|-----4--------------------|
A:-------------------------|--------------------------|
E:-2-----------------------|--2-----------------------|

  Bm7                        Bm7
e:-------2--------------2--|--------2--------------2--|
B:----------3--------3-----|-----------3--------3-----|
G:----------------2--------|-----------------2--------|
D:----4--------------------|-----4--------------------|
A:-2-----------------------|--2-----------------------|
E:-------------------------|--------------------------|

  E
e:----------0-----------0-----------0-------|
B:-------0-----------0-----------0----------|
G:----1-----------1-----------1-------------|
D:-------------0----------------------------|
A:-------------------------4-----------2----|
E:-0----------------------------------------|  END of CHORUS


END:
----
  Asus2  X 3                 Asus2
e:-------0--------------0--|----0--------------------|
B:----------0--------0-----|----0--------------------|
G:----------------2--------|----2--------------------|
D:----2--------------------|----2--------------------|
A:-0-----------------------|----0--------------------|
E:-------------------------|-------------------------|


Intro : Verse + Fill II
-----

Verse + Fill II :
----------------
                 I was standing
                 All alone against the world outside
                 You were searching
                 For a place to hide
Verse + Fill III:
----------------
                 Lost and lonely
                 Now you've given me the will to survive
                 When we're hungry...love will keep us alive
Fill I :
--------
Verse + Fill II :
----------------
                 Don't you worry
                 Sometimes you've just gotta let it ride
                 The world is changing
                 Right before your eyes
Verse + Fill III :
-----------------
                 Now I've found you
                 There's no more emptiness inside
                 When we're hungry...love will keep us alive
Fill I :
--------
     CHORUS     :
     ------------
                 I would die for you
                 Climb the highest mountain
                 Baby, there's nothing I wouldn't do
Verse + Fill III :
-----------------
                 Now I've found you
                 There's no more emptiness inside
                 When we're hungry...love will keep us alive
SOLO
----
     CHORUS     :
     ------------
                 I would die for you
                 Climb the highest mountain
                 Baby, there's nothing I wouldn't do
Verse + Fill II  :
-----------------
                 I was standing
                 All alone against the world outside
                 You were searching
                 For a place to hide
Verse + Fill III + END :
-----------------------
                 Lost and lonely
                 Now you've given me the will to survive
                 When we're hungry...love will keep us alive    X 3

That's about the size.
Happy Playing !
	  

Full key step upFull key step up
Half key step upHalf key step up
Half key step downHalf key step down
Full key step downFull key step down
Search Paypal
auto scroll beats size up size down change color hide chords drawings
tab show chords e-chords YouTube Clip e-chords hide all tabs e-chords go to top tab

share with facebook