Eagle-Eye Cherry

home > Eagle-Eye Cherry

Fallin in love again (solo) Tab

Eagle-Eye Cherry

Difficulty: BeginnerBeginner

tuner correct add songbook print version text version save to e-mail
chordsukulelecavacokeyboardtabbassdrumsharmonicsflute Guitar Pro
chords

Fallin in love again (solo)

  		 
opa! ae esta o solo de falling in love again do 
eagle eye cherry, se tiver algum erro me avisa 
pq essa parte final eh bem foda de ouvir abraçao! 
 
morgan : [email protected] 
 
 
 
 
e-------------------------------------------- 
b-------------------------------------------- 
g--------12-----12-----14b------------------- 
d-12h14-----14-----14------------------------ 
a-------------------------------------------- 
E-------------------------------------------- 
 
 
e-------------------------------------------- 
b-------------------------------------------- 
g--14~~-14~~--14~~~~----------12----14-14-12- 
d----------------------12h14-----14---------- 
a-------------------------------------------- 
E-------------------------------------------- 
 
 
e-------------------------------------------- 
b--16b---15--12-13-15------------------------ 
g----------------------12b-12b-14h12----12/5- 
d------------------------------------14------ 
a-------------------------------------------- 
E-------------------------------------------- 
 
 
e-------------------------------------------- 
b--12-12-12-12-13--13-13-13-13---12---------- 
g--12-12-12-12-12--12-12-12-12---12---------- 
d-------------------------------------------- 
a-------------------------------------------- 
E-------------------------------------------- 
 
e-------------------------------------------- 
b--12-x-12-13h12-13h12-13h12----------------- 
g--12-x-12-12----12----12-------------------- 
d-------------------------------------------- 
a-------------------------------------------- 
E-------------------------------------------- 
 
e-------------------------------------------- 
b---12--------------------------------------- 
g---12---12--12--12-------------------------- 
d---14---14--14--14--12-14-14---------------- 
a-------------------------------------------- 
E-------------------------------------------- 
 
e-------------------------------------------- 
b-------------15-15------13----12------------ 
g-------------------------------------14----- 
d--14/17--17---------14-----14-----14-------- 
a-------------------------------------------- 
E-------------------------------------------- 
 
e-------------------------------------------- 
b-------------------------12----------------- 
g------12------12-----12--12----------------- 
d--14------14------12-----14----------------- 
a-------------------------------------------- 
E-------------------------------------------- 
 
riff final  (escute com atençao) reptidas vezes isso 
 
e-------------------------------------------- 
b-------------------------------------------- 
g----------------------------------4--------- 
d--4h5-5-5-5-5-4h-55-5-5---4h5-555----------- 
a-------------------------------------------- 
E-------------------------------------------- 
 
 
riff no meio  
 
e------3/7--7--7/3--3---3--3------------------------ 
b------3/8--8--8/5--5---3--3----------------------- 
g------3/5--5--5/5--5---4--4---5h4h5-5h4h5---------- 
d------3/5--5--5/5--5---5--5------------------------ 
a------3/5--5--5/3--3---5--5------------------------ 
E-----------------------3--3------------------------ 
 
era isso!! :) 
 
 
 
_______________________________________________________ 
Contribuição: MORGAN GIL CARBONERA([email protected]) 

	  

Search Paypal
auto scroll beats size up size down change color hide chords drawings
tab show chords e-chords YouTube Clip e-chords hide all tabs e-chords go to top tab