Dwight Yoakam

A Thousand Miles From Nowhere

Dwight Yoakam

tabs

by  JOAOEWERTON

save to print version add songbook text version e-mail correct tuner
chordsukulelecavacokeyboardtabbassdrumsharmonicaflute Guitar Pro
close

there isn't a video lesson for this song

chords

A Thousand Miles From Nowhere

	  		

Tuning: E A D G B E





 Intro 
  Moderately Q=120 
   C                      Am  
 4/4 
  Gtr II 
   Q     E   E +E E Q      Q    E  E +E E Q 
   |    |  |  | | |      |   | |  | | | 
   /    /  /  / / /      /   / /  / / / 

  Gtr I 
        ~~~~ 
   Q   +H.               W 
|-15--(15)-----------|-<12>--------------| 
|-13--(13)-----------|-------------------| 
|-12--(12)-----------|-------------------| 
|--------------------|-------------------| 
|--------------------|-------------------| 
|--------------------|-------------------| 


   C                      Am  
   Q     E   E +E E Q       E    E   E  E +E E Q 
   |    |  |  | | |      |  |   |  | | | 
   /    /  /  / / /      /  /   /  / / / 

        ~~~~~~~~~~~~~~~~~~~~ 
   Q   +H.               W 
|-15--(15)-----------|-<12>----------------|| 
|-13--(13)-----------|---------------------|| 
|-12--(12)-----------|---------------------|| 
|--------------------|---------------------|| 
|--------------------|---------------------|| 
|--------------------|---------------------|| 


 1st Chorus 
   C                   Am                   C                     Am  
  E Q  E +E  E   E   E    E Q   E +E  E   E   E      E   Q  E +E  E   E   E    E Q   E +E  E   E   E  
  | |  |  | | | |   | |   |  | | | |    |  |  |  | | | |   | |   |  | | | | 
  / /  /  / / / /   / /   /  / / / /    /  /  /  / / / /   / /   /  / / / / 

  W                 Q    E   E    E   E   E   E    +W                  Q    E   E    E   E   E   E  
|-----------------|-----8-5----------|-------------------|------------------| 
|-----------------|----------8p5---5-|-(5)---------------|-----8-5----------| 
|-----------------|--------------7---|-------------------|----------7p5---5-| 
|-----------------|------------------|-------------------|--------------7---| 
|-----------------|------------------|-------------------|------------------| 
|-----------------|------------------|-------------------|------------------| 


   C                     Am  
    E   Q  E +E  E   E   E      E   Q  E +E  E   E   E  
   |  |  |  | | | |    |  |  |  | | | | 
   /  /  /  / / / /    /  /  /  / / / / 

   ~~~~~~~~~~~~~~~~~~~~~~~ 
  +W                  +H        Q    E   E  
|-------------------|-------------------| 
|-------------------|-------------------| 
|-(5)---------------|-(5)---------------| 
|-------------------|---------------0-2-| 
|-------------------|-------------------| 
|-------------------|-------------------| 


   F                    G  
  E Q   E +E  E   E   E    E Q   E +E  E   E   E      E   Q  E +E  E   E   E  
  | |   |  | | | |   | |   |  | | | |    |  |  |  | | | | 
  / /   /  / / / /   / /   /  / / / /    /  /  /  / / / / 

                                         ~~~ 
  Q   H        Q      E   E   E   E    E  E Q     +W 
|------------------|--------------3---|-(3)---------------|| 
|------------------|----------3-------|-------------------|| 
|-----2------------|-----4------------|-------------------|| 
|-3----------------|---5---5----5-----|-------------------|| 
|------------------|------------------|-------------------|| 
|------------------|------------------|-------------------|| 


 1st & 2nd Verses 
  $ 
   C                   Am                   C                     Am  
  E Q  E +E  E   E   E    E Q   E +E  E   E   E      E   Q  E +E  E   E   E    E Q   E +E  E   E   E  
  | |  |  | | | |   | |   |  | | | |    |  |  |  | | | |   | |   |  | | | | 
  / /  /  / / / /   / /   /  / / / /    /  /  /  / / / /   / /   /  / / / / 

  W                 Q    E   E    E   E   E   E    +W                  Q    E   E    E   E   E   E  
|-----------------|-----8p5----------|-------------------|------------------| 
|-----------------|----------8p5---5-|-(5)---------------|-----8p5----------| 
|-----------------|--------------7---|-------------------|----------7p5---5-| 
|-----------------|------------------|-------------------|--------------7---| 
|-----------------|------------------|-------------------|------------------| 
|-----------------|------------------|-------------------|------------------| 


   C                     Am  
    E   Q  E +E  E   E   E      E   Q  E +E  E   E   E  
   |  |  |  | | | |    |  |  |  | | | | 
   /  /  /  / / / /    /  /  /  / / / / 

   ~~~~~~~~~~~~~~~~~~~~~~~ 
  +W                  +H        Q    E   E  
|-------------------|-------------------| 
|-------------------|-------------------| 
|-(5)---------------|-(5)---------------| 
|-------------------|---------------0-2-| 
|-------------------|-------------------| 
|-------------------|-------------------| 


   F                    G                   Gsus4     G  
  E Q   E +E  E   E   E     E   E   E   E   E   E   E   E      E    E   E   E   E   E   E   E  
  | |   |  | | | |   | |   | | | | |    |  |   | | | | | 
  / /   /  / / / /   / /   / / / / /    /  /   / / / / / 

                                        ~~~ 
  Q   H        Q      E   E   E   E   E  E Q     +W 
|------------------|-------------3---|-(3)---------------|| 
|------------------|---------3-------|-------------------|| 
|-----2------------|-----4-----------|-------------------|| 
|-3----------------|---5---5---5-----|-------------------|| 
|------------------|-----------------|-------------------|| 
|------------------|-----------------|-------------------|| 


 2nd & 3rd Choruses 
   C                   Am                   C                     Am  
  E Q  E +E  E   E   E    E Q   E +E  E   E   E      E   Q  E +E  E   E   E    E Q   E +E  E   E   E  
  | |  |  | | | |   | |   |  | | | |    |  |  |  | | | |   | |   |  | | | | 
  / /  /  / / / /   / /   /  / / / /    /  /  /  / / / /   / /   /  / / / / 

  W                 Q    E   E    E   E   E   E    +W                  Q    E   E    E   E   E   E  
|-----------------|-----8p5----------|-------------------|------------------| 
|-----------------|----------8p5---5-|-(5)---------------|-----8p5----------| 
|-----------------|--------------7---|-------------------|----------7p5---5-| 
|-----------------|------------------|-------------------|--------------7---| 
|-----------------|------------------|-------------------|------------------| 
|-----------------|------------------|-------------------|------------------| 


   C                     Am  
    E   Q  E +E  E   E   E      E   Q  E +E  E   E   E  
   |  |  |  | | | |    |  |  |  | | | | 
   /  /  /  / / / /    /  /  /  / / / / 

   ~~~~~~~~~~~~~~~~~~~~~~~ 
  +W                  +H        Q    E   E  
|-------------------|-------------------| 
|-------------------|-------------------| 
|-(5)---------------|-(5)---------------| 
|-------------------|---------------0-2-| 
|-------------------|-------------------| 
|-------------------|-------------------| 


                               To Coda 
   F                    G  
  E Q   E +E  E   E   E    E Q   E +E  E   E   E      E   Q  E +E  E   E   E  
  | |   |  | | | |   | |   |  | | | |    |  |  |  | | | | 
  / /   /  / / / /   / /   /  / / / /    /  /  /  / / / / 

                                         ~~~ 
  Q   H        Q      E   E   E   E    E  E Q     +H.           Q 
|------------------|--------------3---|-(3)---------------|| 
|------------------|----------3-------|-------------------|| 
|-----2------------|-----4------------|-------------------|| 
|-3----------------|---5---5----5-----|-------------------|| 
|------------------|------------------|-------------------|| 
|------------------|------------------|-------------------|| 


 1st Bridge 
   F                                       G  
  E Q  E +E  E   E   E      E   Q  E +E  E   E   E    E Q  E +E  E   E   E  
  | |  |  | | | |    |  |  |  | | | |   | |  |  | | | | 
  / /  /  / / / /    /  /  /  / / / /   / /  /  / / / / 

  ~~~~~~~~~~~~~~~~~~~~~~                ~~~~~~~~~~~~~~~~~ 
  W                 +H        H         W 
|-1---------------|-(1)---------------|-3---------------| 
|-1---------------|-(1)---------------|-3---------------| 
|-2---------------|-(2)---------------|-4---------------| 
|-----------------|-------------------|-----------------| 
|-----------------|-------------------|-----------------| 
|-----------------|-------------------|-----------------| 


                        F  
    E   Q   E +E  E   E   E    E Q  E +E  E   E   E      E   Q  E +E  E   E   E  
   |  |   |  | | | |   | |  |  | | | |    |  |  |  | | | | 
   /  /   /  / / / /   / /  /  / / / /    /  /  /  / / / / 

 ~~~~~                 ~~~~~~~~~~~~~~~~~~~~~~ 
  +Q    Q    H         W                 +H.           Q 
|-(3)----------------|-5---------------|-(5)----------------| 
|-(3)----------------|-6---------------|-(6)----------------| 
|-(4)----------------|-5---------------|-(5)----------------| 
|--------------------|-----------------|--------------------| 
|--------------------|-----------------|--------------------| 
|--------------------|-----------------|--------------------| 


   G                             Am  
  E Q   E   E   E   E   E    W          W 
  | |  | | | | |   |          | 
  / /  / / / / /   /          / 

                              \0.5_____| 
  ~ 
  W                W          Q.      +E  +H 
|-7--------------|----------|-0-------(0)-(0)----| 
|-8--------------|----------|-1-------(1)-(1)----| 
|-7--------------|----------|-2-------(2)-(2)----| 
|----------------|----------|--------------------| 
|----------------|----------|--------------------| 
|----------------|----------|--------------------| 


               1st Guitar Solo 
                   C  
  +W               E Q    E +E  E   E   E  
   |               | |    |  | | | | 
   /               / /    /  / / / / 

                   ~~~~~~~~~~~~ 
  +W            a  Q    Q    Q    E   E  
|-(0)--------||-8s10---\8---\5---3p0---| 
|-(1)--------||-8s10---\8---\5---------| 
|-(2)--------||------------------------| 
|------------||------------------------| 
|------------||------------------------| 
|------------||------------------------| 


   Am                    C  
  E Q   E +E   E   E   E    E Q        E   +E   E   E    E  
  | |   |  |  | | |   | |       |   |  | |  | 
  / /   /  /  / / /   / /       /   /  / /  / 

           ~~~ 
   E   E   E  E +Q.      E    Q   a   E    E     E   Q     E  
|-3p0---------------|-----8s10-\8-/10-\8---\5-| 
|-----3s5-(5)-------|-----8s10-\8-/10-\8---\5-| 
|-------------------|-------------------------| 
|-------------------|-------------------------| 
|-------------------|-------------------------| 
|-------------------|-------------------------| 


   Am                       C  
  E Q   E +E   E   E    E      E Q      E +E  E    E   E  
  | |   |  |  | |  |     | |      |  | |  | | 
  / /   /  /  / /  /     / /      /  / /  / / 

           ~~~                  ~~~~~~~~~~~~ 
   E  E Q   +Q.     +E     Q   a  Q    Q    Q 
|----------------------|-----8s10---\8---\5---| 
|-8p5-8---(8)-----(8)\-|-----8s10---\8---\5---| 
|----------------------|----------------------| 
|----------------------|----------------------| 
|----------------------|----------------------| 
|----------------------|----------------------| 


   Am                            F  
      E Q     E +E  E    E     E    E Q       E +E  E   E   E  
      | |     |  | |  |   |   | |       |  | | | | 
      / /     /  / /  /   /   / /       /  / / / / 

      |--3--| 
  a a q   q q    Q   +E    E    Q   a a  E   E    E   E   E   E  
|-----8---7-5---------------|---------8-5----------| 
|---x------------8---(8)\---|-------x------6-----6-| 
|-x-------------------------|-----x----------7-5---| 
|---------------------------|----------------------| 
|---------------------------|----------------------| 
|---------------------------|----------------------| 


   G                    Gsus4           G  
   E   E    E   E   E   E   E   E     E       E   E       E   E       E   E       E  
  | |    | | | | |   |     |       | |     | |     | 
  / /    / / / / /   /     /       / /     / /     / 

                     |-3-|   |-3-|   |-3-|   |-3-| 
   E   E    E   E   E   E   E   E    S S S E S S S e S S S e S S S e 
|-7----------------|-7h8p7---5h7p5s3-3h5p3s1-1h3p1p0---|| 
|---8-10-8-8---8---|-----------------------------------|| 
|------------9-----|-----------------------------------|| 
|------------------|-----------------------------------|| 
|------------------|-----------------------------------|| 
|------------------|-----------------------------------|| 


 2nd Bridge 
   F  
  E Q  E +E  E   E   E      E    Q   E +E  E   E      E  
  | |  |  | | | |    |   |   |  | | |    | 
  / /  /  / / / /    /   /   /  / / /    / 

  W                 +E   E Q    Q   S E. 
|-----------------|------------------------| 
|-6---------------|-(6)\------------5s6----| 
|-----------------|------------------------| 
|-----------------|------------------------| 
|-----------------|------------------------| 
|-----------------|------------------------| 


   G                                         F  
   E Q  E +E  E   E   E      E   Q   E +E  E   E   E    E Q  E +E  E   E   E  
   | |  |  | | | |    |  |   |  | | | |   | |  |  | | | | 
   / /  /  / / / /    /  /   /  / / / /   / /  /  / / / / 

   ~~~~~~~~~~~~~~~~~~~~~~                 ~ 
   W                 +Q    Q    Q    E   E    W 
|------------------|--------------------|-5-----------------| 
|-/8---------------|-(8)--------------6-|-------------------| 
|------------------|----------------5---|-------------------| 
|------------------|--------------------|-------------------| 
|------------------|--------------------|-------------------| 
|------------------|--------------------|-------------------| 


                       G  
    E   Q  E +E  E   E   E     E Q    E   E   E    E   E  
   |  |  |  | | | |    | |   | | |  | | 
   /  /  /  / / / /    / /   / / /  / / 

   ~~~ 
  +Q.     E   Q   Q      Q   Q   Q     E   E  
|-(5)-----------7---|-10---8---7--------| 
|-------------------|--------------10---| 
|-------------------|-------------------| 
|-------------------|-------------------| 
|-------------------|-------------------| 
|-------------------|-------------------| 


                              D.S. al Coda 
                  Am  
  W              W                    +W 
  |              |                     | 
  /              /                     / 

                 \0.5______| 
  ~~~~~~~~~                            ~~~ 
  H    +Q.    E    H        +Q   +Q     +W 
|-7----(7)-----|-0--------(0)--(0)--|-(0)-----|| 
|-8----(8)-----|-1--------(1)--(1)--|-(1)-----|| 
|--------------|-2--------(2)--(2)--|-(2)-----|| 
|--------------|--------------------|---------|| 
|--------------|--------------------|---------|| 
|--------------|--------------------|---------|| 


  & 
   G                   C                   Am  
  E Q  E +E  E   E   E    E Q  E +E  E   E   E    E Q   E +E  E   E   E  
  | |  |  | | | |   | |  |  | | | |   | |   |  | | | | 
  / /  /  / / / /   / /  /  / / / /   / /   /  / / / / 

  ~ 
  W                 W                 Q    E   E    E   E   E   E  
|-3---------------|-----------------|-----8p5----------| 
|-----------------|-----------------|----------8p5---5-| 
|-----------------|-----------------|--------------7---| 
|-----------------|-----------------|------------------| 
|-----------------|-----------------|------------------| 
|-----------------|-----------------|------------------| 


   C                     Am  
    E   Q  E +E  E   E   E    E Q   E +E  E   E   E  
   |  |  |  | | | |   | |   |  | | | | 
   /  /  /  / / / /   / /   /  / / / / 

  +W                  Q    E   E    E   E   E   E  
|-------------------|------------------| 
|-(5)---------------|-----8p5----------| 
|-------------------|----------7p5---5-| 
|-------------------|--------------7---| 
|-------------------|------------------| 
|-------------------|------------------| 


   C                     Am  
    E   Q  E +E  E   E   E      E   Q  E +E  E   E   E  
   |  |  |  | | | |    |  |  |  | | | | 
   /  /  /  / / / /    /  /  /  / / / / 

   ~~~~~~~~~~~~~~~~~~~~~~~ 
  +W                  +H        Q    E   E  
|-------------------|-------------------| 
|-------------------|-------------------| 
|-(5)---------------|-(5)---------------| 
|-------------------|---------------0-2-| 
|-------------------|-------------------| 
|-------------------|-------------------| 


   F                    G  
  E Q   E +E  E   E   E    E Q   E +E  E   E   E      E   Q  E +E  E   E   E  
  | |   |  | | | |   | |   |  | | | |    |  |  |  | | | | 
  / /   /  / / / /   / /   /  / / / /    /  /  /  / / / / 

                                         ~~~ 
  Q   H        Q      E   E   E   E    E  E Q     +H.            E   E  
|------------------|--------------3---|-(3)-----------5-5-|| 
|------------------|----------3-------|---------------6-6-|| 
|-----2------------|-----4------------|-------------------|| 
|-3----------------|---5---5----5-----|-------------------|| 
|------------------|------------------|-------------------|| 
|------------------|------------------|-------------------|| 


 2nd Guitar Solo 
   F                                       G  
   E   Q  E +E  E   E   E     E   Q  E +E  E   E   E     E   Q  E +E  E    E   E     E    Q  E +E  E   E   E  
  |  |  |  | | | |   |  |  |  | | | |   |  |  |  | |  | |   |   |  |  | | | | 
  /  /  /  / / / /   /  /  /  / / / /   /  /  /  / /  / /   /   /  /  / / / / 

  ~~ 
  Q.     E    E   E   E   E    H.           Q     Q.     E    E   E    E   E    S S Q   E    E  E Q 
|-8-----5--7p5---5-|------------------|-7-----7-10p7----7-|-7h8-7--7--7--------| 
|--------------8---|-6----------------|-8------------10---|--------------------| 
|------------------|------------------|-------------------|--------------------| 
|------------------|------------------|-------------------|--------------------| 
|------------------|------------------|-------------------|--------------------| 
|------------------|------------------|-------------------|--------------------| 


   F  
  E Q        E     +E  E   E    E      E   Q     E   +E    E   E   E  
  | |       |     | | |  |    |  |    |   |   | | | 
  / /       /     / / /  /    /  /    /   /   / / / 

                  ~~~ 
  Q    a  Q    a  Q.      E      E    E   Q    +Q     Q 
|-----12s13---13s15p====13-|-13p12-13---(13)\-------| 
|--------------------------|------------------------| 
|--------------------------|------------------------| 
|--------------------------|------------------------| 
|--------------------------|------------------------| 
|--------------------------|------------------------| 


   G  
  E Q       E +E  E      E    E     E Q        E            +E   E    E    E  
  | |       |  | |    |  |    | |       |            |  |  |  | 
  / /       /  / /    /  /    / /       /            /  /  /  / 

  Q   a  e  e  e S  S  E   e    e S  S  E   S      +S   +Q      E    E  
|-------15-17-19---17---15-|------------------------------------| 
|-----x--------------------|-17---15----------------------15----| 
|--------------------------|-----------16b17==(16)r(16)------16-| 
|--------------------------|------------------------------------| 
|--------------------------|------------------------------------| 
|--------------------------|------------------------------------| 


   C                        Am  
    E   Q   E +E   E   E    E      E   Q     E       +E      E      E   E  
   |  |   |  |  | |  |    |  |    |       |     |    | | 
   /  /   /  /  / /  /    /  /    /       /     /    / / 

                                  \0.5/   \1/ 
   ~~~ 
   Q.      E    E   Q     E      E   Q   +E      +E    +E    Q 
|----------------------|---------------------------------| 
|----------------------|---------------------------------| 
|-17-----17-17p16---16-|-16s14--(14)----(14)--(14)\------| 
|----------------------|---------------------------------| 
|----------------------|---------------------------------| 
|----------------------|---------------------------------| 
| 
| Gtr III 
|  W                      H               Q          Q 
|----------------------|---------------------------------| 
|----------------------|---------------------------------| 
|----------------------|----------------------------12s==| 
|----------------------|---------------------------------| 
|----------------------|---------------------------------| 
|----------------------|---------------------------------| 


   C                                             Am  
    E   Q                 E     +E  E        E     E       E      Q                 E         +E     E     E   E  
   |  |                |     | |      |   |     |     |                |         |    |   | | 
   /  /                /     / /      /   /     /     /                /         /    /   / / 

                                                \0.5______|    \0.5____| 
   E.    a  S  +E   a   E   a  E.   S  +E    E      E.       +S   +E      +S   +S   +E   +E   Q 
|-------------------------------------------|---------------------------------------------------| 
|-------12h13-(13)-12h13-12h13p==12-(12)-13-|--13-------(13)-(13)----(13)-(13)-(13)-(13)\-------| 
|-------------------------------------------|---------------------------------------------------| 
|-------------------------------------------|---------------------------------------------------| 
|-------------------------------------------|---------------------------------------------------| 
|-------------------------------------------|---------------------------------------------------| 
| 
|                                               ~~~~~~~ 
|  W                                           +W 
|-------------------------------------------|---------------------------------------------------| 
|-------------------------------------------|---------------------------------------------------| 
|-17----------------------------------------|-(17)----------------------------------------------| 
|-------------------------------------------|---------------------------------------------------| 
|-------------------------------------------|---------------------------------------------------| 
|-------------------------------------------|---------------------------------------------------| 


   C                                Am  
     E    Q      E +E   E     E     E       E    Q            E       +E     E      E   E  
    |   |      |  |  |   |   |     |   |           |       |    |    | | 
    /   /      /  /  /   /   /     /   /           /       /    /    / / 

                                           \0.5/   \0.5/ 
     E    Q.         E    E   +E    E       E     E   +E      +E      +E   +E     E   E  
|----------------17------------|-----------------------------------------| 
|------15b17========15r(15)-13-|--12s=10-(10)----(10)----(10)-(10)\----5-| 
|------------------------------|-----------------------------------------| 
|------------------------------|-----------------------------------------| 
|------------------------------|-----------------------------------------| 
|------------------------------|-----------------------------------------| 
| 
|   ~~~~~~~~~~~~~~~~~~~~~~~~~~~~~~~~~~ 
|  +W                             +H                       Q         Q 
|------------------------------|-----------------------------------------| 
|------------------------------|-----------------------------------------| 
|-(17)-------------------------|-(17)-------------------------------17---| 
|------------------------------|-----------------------------------------| 
|------------------------------|-----------------------------------------| 
|------------------------------|-----------------------------------------| 


      F                        G  
      E Q   E   +E   E    E    E      E   Q     E +E   E    E    E  
      | |  |   |  |  |  |    |  |     |  |  |  |  | 
      / /  /   /  /  /  /    /  /     /  /  /  /  / 

      E Q   E   +Q      E    E      E    E    E    E    E    E    E    E  
|-------5--5--(5)----5S=7-|--7S=8--8S10-10S12-12-12--| 
|-----6-6--6--(6)----6S=8-|--8S10-10S12-12S13-13-13--| 
|-------------------------|--------------------------| 
|-------------------------|--------------------------| 
|-------------------------|--------------------------| 
|-------------------------|--------------------------| 
| 
|     ~~                     ~~~ 
|  a  H       +Q      E    E     W 
|-------------------------|--------------------------| 
|-17s18------(18)s==17----|--------------------------| 
|----------------------17-|--------------------------| 
|-------------------------|-17-----------------------| 
|-------------------------|--------------------------| 
|-------------------------|--------------------------| 


                                             C  
     E   Q             E    +E   E        E      E      E   Q     E   +E     E     E   E  
    |  |            |    |  |      |    |    |  |    |   |    |   | | 
    /  /            /    /  /      /    /    /  /    /   /    /   / / 

                                                   ~~~~~~~~~ 
     E   S  S  +S  S  E a   E   S  S  +S S   E      E    E   Q    +E   +E   Q 
|--15----13-(13)---12---15----13-(13)--12-|---------------------------| 
|---------------------x-------------------|-13h15-15---(15)-(15)\-----| 
|-----------------------------------------|---------------------------| 
|-----------------------------------------|---------------------------| 
|-----------------------------------------|---------------------------| 
|-----------------------------------------|---------------------------| 
| 
|   ~~~~                                     ~~~~~~~~~~~~~~~~~~~~~~~~~~ 
|  +H                    Q         Q         W 
|-----------------------------------------|---------------------------| 
|-----------------------------------------|---------------------------| 
|-----------------------17\-------12s=====|=17------------------------| 
|-(17)------------------17\---------------|---------------------------| 
|-----------------------------------------|---------------------------| 
|-----------------------------------------|---------------------------| 


   Am                                C  
     E   Q        E +E   E     E     E       E    Q     E   +E     E     E    E  
    |  |        |  |  |   |   |     |   |    |   |    |   |  | 
    /  /        /  /  /   /   /     /   /    /   /    /   /  / 

                                           ~~~~~~~~~ 
    Q     Q         E    E   +E    E       E     E   Q    +E   +E    E   S  S 
|-----------------17------------|----------------------------------| 
|--------15b17=======15r(15)-13-|--13h=15-15---(15)-(15)\---12h13p=| 
|-------------------------------|----------------------------------| 
|-------------------------------|----------------------------------| 
|-------------------------------|----------------------------------| 
|-------------------------------|----------------------------------| 
| 
|~~~~~~~~~~~~~~~~~~~~~~~~~~~~~~~~~~~~~~ 
|  +W                              +W 
|-------------------------------|----------------------------------| 
|-------------------------------|----------------------------------| 
|-(17)--------------------------|-(17)-----------------------------| 
|-------------------------------|----------------------------------| 
|-------------------------------|----------------------------------| 
|-------------------------------|----------------------------------| 


   Am  
     E   Q                         E            +E     E      E   E  
    |  |                        |            |    |    | | 
    /  /                        /            /    /    / / 

           \0.5/   \0.5____|    \0.5____| 
    E.    +S      +S      +S   +S      +S   +E   +E    Q 
|----------------------------------------------------------| 
|--12----(12)----(12)----(12)-(12)----(12)-(12)-(12)\------| 
|----------------------------------------------------------| 
|----------------------------------------------------------| 
|----------------------------------------------------------| 
|----------------------------------------------------------| 
| 
|   ~~~~ 
|  +H                                        Q         Q 
|----------------------------------------------------------| 
|----------------------------------------------------------| 
|-(17)------------------------------------------------12s==| 
|----------------------------------------------------------| 
|----------------------------------------------------------| 
|----------------------------------------------------------| 


   C                                   Am                               F  
    E   Q       E +E       E   E    E          E    Q      E   +E   E     E     E     E Q      E    +E  E   E   E  
   |  |       |  |      | |  |        |   |     |   |  |   |   |    | |     |    | | | | 
   /  /       /  /      / /  /        /   /     /   /  /   /   /    / /     /    / / / / 

    E   Q        E   S  +S   E   E    E     a    E     E    E    E    Q     +E    E     Q   a  E  E a  Q    E   E  
|------------17----------------|---------------------------------|-------------------------| 
|----15b17======15r(15)---x-12-|-12h=13p=12----------------------|------5h6p5-6s=8s==6p5---| 
|------------------------------|------------14-12--14----(14)\---|-------------------------| 
|------------------------------|---------------------------------|-------------------------| 
|------------------------------|---------------------------------|-------------------------| 
|------------------------------|---------------------------------|-------------------------| 
| 
|  ~~~~~~~~~~~~~~~~~~~~~~~~~~~~~~~~~~~~~~                           ~~ 
|  W                                 +H            +Q      Q        W 
|------------------------------|---------------------------------|-------------------------| 
|------------------------------|---------------------------------|-------------------------| 
|-17---------------------------|----(17)----------(17)s===16s====|=14----------------------| 
|------------------------------|---------------------------------|-------------------------| 
|------------------------------|---------------------------------|-------------------------| 
|------------------------------|---------------------------------|-------------------------| 


   G  
      E   Q       E   +E   E     E      E       E   Q       E +E  E       E      E  
     |  |      |   |  |   |    |     |  |       |  | |     |    | 
     /  /      /   /  /   /    /     /  /       /  / /     /    / 

     |---3---|     |---3----|        |---3----|    |-------3-------| 
  a  Q     Q Q     Q    Q   Q        Q     Q  Q    Q    Q      E      E  
|------------------5----7---8/---|--10----12-13---15---12----13s==15-| 
|-6s=8-----8-8-------------------|-----------------------------------| 
|--------------------------------|-----------------------------------| 
|--------------------------------|-----------------------------------| 
|--------------------------------|-----------------------------------| 
|--------------------------------|-----------------------------------| 
| 
|       ~~~~~~~~~~~~~~~~~~~~~~~~~~~~~~~~ 
|     E   Q.        +H                +H.                    Q 
|--------------------------------|-----------------------------------| 
|--------------------------------|-----------------------------------| 
|---14s12--------(12)------------|-(12)-------------------12s========| 
|--------------------------------|-----------------------------------| 
|--------------------------------|-----------------------------------| 
|--------------------------------|-----------------------------------| 


   C                            Am  
    E   Q   E +E  E      E      E       E       Q        E +E      E    E     E  
   |  |   |  | |    |    |     |      |        |  |     |  |   | 
   /  /   /  / /    /    /     /      /        /  /     /  /   / 

                                                        ~~ 
    E   E Q    Q   a  S  S  E      S   S   E   S  S   E   S  S  Q     +E 
|-15s12------------12-13---|--15p=13p12------------------------------| 
|----------------x---------|------------15-13p12-13S15S17----(17)\---| 
|--------------------------|-----------------------------------------| 
|--------------------------|-----------------------------------------| 
|--------------------------|-----------------------------------------| 
|--------------------------|-----------------------------------------| 
| 
|  ~~~~~~~~~~~~~~~~~~~~~~~~~~~~~~~ 
|  W                          +H.                           E     E  
|--------------------------|-----------------------------------------| 
|--------------------------|------------------------------17s=18s====| 
|-17-----------------------|-(17)------------------------------------| 
|--------------------------|-----------------------------------------| 
|--------------------------|-----------------------------------------| 
|--------------------------|-----------------------------------------| 


   C                                    Am  
   E Q     E       +E     E     E    E          E    Q          E        +E   E    E    E  
   | |    |       |    |   |  |        |   |         |        |  |  |  | 
   / /    /       /    /   /  /        /   /         /        /  /  /  / 

                                                  |--3---| 
   Q    E    E       +E   +E    E    E     a    E    S  S  +Q     +E    H 
|-------------------------------|----------------------------------------| 
|--------15b17==(15)r(15)-13p12-|-12h=13p=12p10-(10)---(10)\-------------| 
|-------------------------------|----------------------------------------| 
|-------------------------------|----------------------------------------| 
|-------------------------------|----------------------------------------| 
|-------------------------------|----------------------------------------| 
| 
|  ~~~~~~~~~~~~~~~~~~~~~~~~~~~~~~~~~~~~~~~ 
|  W                                  +Q          Q            E    E    E    E  
|-------------------------------|----------------------------20s19s20s19-| 
|-20----------------------------|----(20)--------------------------------| 
|-------------------------------|----------------------------------------| 
|-------------------------------|----------------------------------------| 
|-------------------------------|----------------------------------------| 
|-------------------------------|----------------------------------------| 


   C                               Am  
    E     Q       E +E   E    E    E       E    Q      E   +E    E    E    E  
   |    |       |  |  |  |  |     |   |     |   |   |  |  | 
   /    /       /  /  /  /  /     /   /     /   /   /  /  / 

                                            ~~~~~~~~ 
   E.      S  E    E    E    E   e  e      E     E    E    E   +Q       E    E  
|---------17------17S15-------|------------------------x----| 
|-15b17--------17-17S15-13-15-|--15p=13s12-12-(12)----------| 
|-----------------------------|--------------------------14-| 
|-----------------------------|-----------------------------| 
|-----------------------------|-----------------------------| 
|-----------------------------|-----------------------------| 
| 
|  ~~~~~~~~~~~~~~~~~~~~~~~~~~~~~~~~~~ 
|  W                             +H            +E    E   Q 
|-----------------------------|-----------------------------| 
|-20--------------------------|-(20)----------(20)\---17s===| 
|-----------------------------|-----------------------------| 
|-----------------------------|-----------------------------| 
|-----------------------------|-----------------------------| 
|-----------------------------|-----------------------------| 


   F                            G  
    E    Q     E +E   E    E    E      E      Q         E   +E    E     E     E  
   |   |     |  |  |  |  |    |     |        |   |   |   |   | 
   /   /     /  /  /  /  /    /     /        /   /   /   /   / 

    E     E    E    E    E    E    E    E     S  S   E    S  S  E    S S  E    S S  E  
|--------------------------|-----------------------------------| 
|-----13s15s13p12-12s10-10-|-10h12p10\--8h10p8\--6h8p6\--5h6p5-| 
|-12-----------------------|-----------------------------------| 
|--------------------------|-----------------------------------| 
|--------------------------|-----------------------------------| 
|--------------------------|-----------------------------------| 
| 
|  ~~~                        ~~~~~~~~~~~~~~~~~~~~~~~~~~~~~~~~~~ 
|  H.                 Q       Q         Q        Q       Q 
|--------------------------|-----------------------------------| 
|-18-----------------18s===|=20--------20-------20------20-----| 
|--------------------------|-----------------------------------| 
|--------------------------|-----------------------------------| 
|--------------------------|-----------------------------------| 
|--------------------------|-----------------------------------| 


                                  C  
    E      Q       E   +E   E    E    E      E    Q   E +E   E   E   E  
   |     |      |   |  |  |  |    |   |   |  |  | | | 
   /     /      /   /  /  /  /    /   /   /  /  / / / 

                                      ~~~~~~~~~~ 
    E     +E   E +E    E    E    E    E     S S Q.    +Q.     S S 
|------------------------------|-------------------------| 
|------------------------------|--------------------5h6p=| 
|--7b9==(7)--7r(7)--5--------5-|--5h7p5-----(5)----------| 
|----------------------7--5----|-------------------------| 
|------------------------------|-------------------------| 
|------------------------------|-------------------------| 
| 
|~~~~~~~                          ~~~ 
|  Q         Q       E    E    E    E     W 
|------------------20s19s20-19-|-------------------------| 
|-20--------20-----------------|-20----------------------| 
|------------------------------|-------------------------| 
|------------------------------|-------------------------| 
|------------------------------|-------------------------| 
|------------------------------|-------------------------| 


   Am                        C  
     E   Q  E +E   E    E    E     E Q       E +E    E     E      E  
    |  |  |  |  |  |  |    | |       |  |   |   |    | 
    /  /  /  /  /  /  /    / /       /  /   /   /    / 

    ~~~~ 
    H.             Q       Q   a a  E   E   S  E    S S  S  E  
|-----------------------|----------5-7----8------------| 
|---5-------------------|--------x------------8---10s8-| 
|-----------------------|------x-----------------------| 
|-----------------------|------------------------------| 
|-----------------------|------------------------------| 
|-----------------------|------------------------------| 
| 
|   ~~~~                   ~~~~~~~~~~~~~~~~~~~~~~~~~~~~~ 
|  +H         E    E    E    E     W 
|-----------20s19s20s19-|------------------------------| 
|-(20)------------------|-20---------------------------| 
|-----------------------|------------------------------| 
|-----------------------|------------------------------| 
|-----------------------|------------------------------| 
|-----------------------|------------------------------| 


   Am                                            C  
     E   Q             E      +E       E      E    E     E Q       E     +E     E       E      E  
    |  |            |      |      |    |  |    | |      |     |    |     |    | 
    /  /            /      /      /    /  /    / /      /     /    /     /    / 

         \0.5/      \0.5/  \0.5/ 
                                                   |---3---|  |---3---|  |---3---| 
   +E.   S     +E  +E     +E     +E    Q       Q    E    E      E    E    E      E    E    E      E  
|-------------------------------------------|-------------12-15------12-15------12-| 
|--(8)---8-----(8)-(8)----(8)----(8)\-------|--------13---------13---------13------| 
|-------------------------------------------|--------------------------------------| 
|-------------------------------------------|--------------------------------------| 
|-------------------------------------------|--------------------------------------| 
|-------------------------------------------|--------------------------------------| 
| 
|~~~~~~                                        ~~ 
|  +H                       E        E      E    E     W 
|-------------------------20s====19s==20s19-|--------------------------------------| 
|-(20)--------------------------------------|-20-----------------------------------| 
|-------------------------------------------|--------------------------------------| 
|-------------------------------------------|--------------------------------------| 
|-------------------------------------------|--------------------------------------| 
|-------------------------------------------|--------------------------------------| 


   Am  
     E      Q           E      +E       E       E      E  
    |     |          |      |      |     |    | 
    /     /          /      /      /     /    / 

    |---3----|  |---3---|   |----3----|  |---3---| 
     E     E      E    E    E      E     E      E      E    E    E      E  
|--15-------12-15------12--15--------12-15------12-| 
|------13---------13------------13---------13------| 
|--------------------------------------------------| 
|--------------------------------------------------| 
|--------------------------------------------------| 
|--------------------------------------------------| 
| 
|   ~~~~ 
|  +H                      +E       E      Q 
|--------------------------------------------------| 
|-(20)--------------------(20)\---------17s========| 
|--------------------------------------------------| 
|--------------------------------------------------| 
|--------------------------------------------------| 
|--------------------------------------------------| 


   F                                               G  
    E     Q           E     +E     E       E      E         E     Q           E     +E  E   E   E  
   |    |          |     |    |     |    |       |    |          |     | | | | 
   /    /          /     /    /     /    /       /    /          /     / / / / 

   |---3---|  |---3---|  |---3---|  |---3---|    |---3---|  |---3---| 
    E    E      E    E    E      E    E    E      E    E    E      E      E    E      E    E    E      E   H 
|-15p13p==12----12---13p12------12------------|---------------------------------*| 
|------------15------------15------15-13p==12-|-15p13p==12----13p==12-----------*| 
|---------------------------------------------|------------14-------------------*| 
|---------------------------------------------|---------------------------------*| 
|---------------------------------------------|---------------------------------*| 
|---------------------------------------------|---------------------------------*| 
| 
|  ~~~ 
|  H.                               Q            H                     H 
|---------------------------------------------|---------------------------------*| 
|-18-------------------------------18s========|=20------------------------------*| 
|---------------------------------------------|---------------------------------*| 
|---------------------------------------------|---------------------------------*| 
|---------------------------------------------|---------------------------------*| 
|---------------------------------------------|---------------------------------*| 

 
		  

See also:

tabs Simpsons - The simpsons tabs Kenny Chesney - I Go Back tabs Alan Jackson - Chattahoochee Correct tabs Lonestar - Amazed tabs Alison Krauss - You Say Nothing At All tabs James Taylor - Youve Got A Friend (ver. 2)
e-chords

Other versions:

tabs Dwight Yoakam - A Thousand Miles From Nowhere
auto scroll beats size up size down change color hide chords drawings
tab show chords e-chords YouTube Clip e-chords hide all tabs e-chords go to top tab

share