Dungen

Fredag

Dungen

tabs

by  LUCICAMARGO

save to print version add songbook text version e-mail correct tuner
chordsukulelecavacokeyboardtabbassdrumsharmonicaflute Guitar Pro
close

there isn't a video lesson for this song

chords

Fredag

	  		

The guitar plays this riff in the intro with a slide: 
e|--------------------------7-\4----------------------------| 
B|-------------------------------4--------------------------| 
G|-8-\1----1-/3-/6--4-\1-----------4-/6----6-6-6-/13--------| 
D|----------------------------------------------------------| 
A|----------------------------------------------------------| 
E|----------------------------------------------------------| 


Then the piano starts playing these chords. The piano is a bit more complicated, 
with little leads and other stuff, but these chords are the basic piano parts: 
e|-------------------------------------------------------------------------| 
B|-------------------------------------------------------------------------| 
G|-8-8-8-8-8-8-6-6-4-4-4-4-4-4-4-4-6-6-6-6-6-6-6-6-13-13-13-13-13-13-13-13-| 
D|-8-8-8-8-8-8-6-6-4-4-4-4-4-4-4-4-6-6-6-6-6-6-6-6-13-13-13-13-13-13-13-13-| 
A|-6-6-6-6-6-6-4-4-2-2-2-2-2-2-2-2-4-4-4-4-4-4-4-4-11-11-11-11-11-11-11-11-| 
E|-------------------------------------------------------------------------| 


Guitar plays a variation of the intro slide riff: 
e|--------------------------7-\4------------------------------------| 
B|-------------------------------4----------------------------------| 
G|-8-\1----1-/3-/6--8-\1-----------6-/9----8/9\8-5--6-/15----15-\13-| 
D|------------------------------------------------------------------| 
A|------------------------------------------------------------------| 
E|------------------------------------------------------------------| 


Then a fuzz guitar hits these chords: 
e|--------------------| 
B|--------------------| 
G|-9----5-------------| 
D|-9----5----3--------| 
A|-7----3----3--------| 
E|-----------1--------| 


And then these: 
e|-------------------------------------------| 
B|-------------------------------------------| 
G|---------------------------7-7-7-7-7-7-7-7-| 
D|-7----5----3-3-3-3-3-3-3-3-7-7-7-7-7-7-7-7-| 
A|-7----5----3-3-3-3-3-3-3-3-5-5-5-5-5-5-5-5-| 
E|-5----3----1-1-1-1-0-0-0-0-----------------| 


Then you palm mute this chord: 
e|---------------------------------| 
B|---------------------------------| 
G|---------------------------------| 
D|-6-6-6-6-6-6-6-6-6-6-6-6-6-6-6-6-| 
A|-6-6-6-6-6-6-6-6-6-6-6-6-6-6-6-6-| 
E|-4-4-4-4-4-4-4-4-4-4-4-4-4-4-4-4-| 


Back to the intro slide riff again: 
e|--------------------------7-\4----------------------------| 
B|-------------------------------4--------------------------| 
G|-8-\1----1-/3-/6--4-\1-----------4-/6----6-6-6-/13--------| 
D|----------------------------------------------------------| 
A|----------------------------------------------------------| 
E|----------------------------------------------------------| 


Back to piano chords: 
e|-------------------------------------------------------------------------| 
B|-------------------------------------------------------------------------| 
G|-8-8-8-8-8-8-6-6-4-4-4-4-4-4-4-4-6-6-6-6-6-6-6-6-13-13-13-13-13-13-13-13-| 
D|-8-8-8-8-8-8-6-6-4-4-4-4-4-4-4-4-6-6-6-6-6-6-6-6-13-13-13-13-13-13-13-13-| 
A|-6-6-6-6-6-6-4-4-2-2-2-2-2-2-2-2-4-4-4-4-4-4-4-4-11-11-11-11-11-11-11-11-| 
E|-------------------------------------------------------------------------| 


Back to slide riff variation: 
e|--------------------------7-\4------------------------------------| 
B|-------------------------------4----------------------------------| 
G|-8-\1----1-/3-/6--8-\1-----------6-/9----8/9\8-5--6-/15----15-\13-| 
D|------------------------------------------------------------------| 
A|------------------------------------------------------------------| 
E|------------------------------------------------------------------| 


Then back to the chords again, but with more variation from the original: 
e|-----------------------------------------------------------| 
B|-----------------------------------------------------------| 
G|-9----5-------------6----5----7--------6----5----3----3----| 
D|-9----5----3--------6----5----7--------6----5----3----3----| 
A|-7----3----3--------4----3----5--------4----3----1----0----| 
E|-----------1-----------------------------------------------| 


Then the same chords are used to end the sequence: 
e|-------------------------------------------------| 
B|-------------------------------------------------| 
G|---------------------------------7-7-7-7-7-7-7-7-| 
D|-7-7-7-7-5-5-5-5-3-3-3-3-3-3-3-3-7-7-7-7-7-7-7-7-| 
A|-7-7-7-7-5-5-5-5-3-3-3-3-3-3-3-3-5-5-5-5-5-5-5-5-| 
E|-5-5-5-5-3-3-3-3-1-1-1-1-0-0-0-0-----------------| 


Palm muted chord again: 
e|---------------------------------| 
B|---------------------------------| 
G|---------------------------------| 
D|-6-6-6-6-6-6-6-6-6-6-6-6-6-6-6-6-| 
A|-6-6-6-6-6-6-6-6-6-6-6-6-6-6-6-6-| 
E|-4-4-4-4-4-4-4-4-4-4-4-4-4-4-4-4-| 


Little lead just before the solo. 
The piano plays the second part after 
the slide, but I've tabbed it for guitar: 
e|----------------------| 
B|----------------------| 
G|-8-\1----3-6-4--------| 
D|----------------------| 
A|----------------------| 
E|----------------------| 


Guitar Solo: 
Play these unison bends, and make sure 
to bend up slowly to get the same sound: 
e|-------------------------| 
B|-4---------7-4-----------| 
G|-6-b8----6---6-b8--------| x4 
D|-------------------------| 
A|-------------------------| 
E|-------------------------| 

e|-11-----------14-11------------| 
B|-14-b16----14----14-b16--------| 
G|-------------------------------| x3 
D|-------------------------------| 
A|-------------------------------| 
E|-------------------------------| 

e|-11-----11-----11---------14-11-----11-----11-----11-----| 
B|-14-b16-14-b16-14-b16--14----14-b16-14-b16-14-b16-14-b16-| 
G|---------------------------------------------------------| x2 
D|---------------------------------------------------------| 
A|---------------------------------------------------------| 
E|---------------------------------------------------------| 

e|-11-----------14-11-----11-----11-----11-----| 
B|-14-b16----14----14-b16-14-b16-14-b16-14-b16-| 
G|---------------------------------------------| 
D|---------------------------------------------| 
A|---------------------------------------------| 
E|---------------------------------------------| 


Sustain this bend and let it naturally fade out: 
e|-11--------------------| 
B|-14-b16----------------| 
G|-----------------------| 
D|-----------------------| 
A|-----------------------| 
E|-----------------------| 


For the outro, the piano plays a variation on the 
piano riff from 'C.R.E.A.M.' by Wu-Tang Clan: 
e|--------------------------------------------| 
B|--------------------------------------------| 
G|----3-4-6-------5-6-------------------------| 
D|-6.-------6-4-6------9p8p6------------------| 
A|---------------------------9.--7--6-4.-4-4--| 
E|--------------------------------------------| 


 
		  

See also:

tabs Mixtapes - Russian House Dj tabs Daughter - Blue And Grey tabs Daughter - Mothers tabs From Indian Lakes - We Never Dream (acoustic) tabs From Indian Lakes - We Thought Your Hearts Were Beating tabs Keaton Henson - Charon
e-chords

Other versions:

tabs Dungen - Fredag
auto scroll beats size up size down change color hide chords drawings
tab show chords e-chords YouTube Clip e-chords hide all tabs e-chords go to top tab

share