Dudu Nobre

A grande família (solo)

Dudu Nobre

tabs Beginner beginner

by  GALETO

save to print version add songbook text version e-mail correct tuner
chordsukulelecavacokeyboardtabbassdrumsharmonicaflute Guitar Pro
close

there isn't a video lesson for this song

chords

A grande família (solo)

	  		 
   Solinho do começo da música. 
 
 
   Violão: 
 
E|---------------------------------------- 
B|-1-3-5-6-5-3-1-0------------------------ 
G|-----------------3-2-2-6-9-11-10-8-8-8-7 
D|---------------------------------------- 
A|---------------------------------------- 
E|---------------------------------------- 
 
   Cavaquinho: 
 
D-1-3-5-6-5-3-1-0------------------------- 
B------------------3-2-2-6-9-11-10-8-8-8-7 
G-----------------------------------------    
D----------------------------------------- 
		  

See also:

tabs Alvaro Sandin - Flor de Abacate tabs Tentasamba - Não da pra entender tabs Pagod'art - Não me chame não (Solo) tabs Jorge Aragão - Ave Maria (Cavaquinho) tabs Doce Encontro - Sem hora marcada tabs Arlindo Cruz - Será que é Amor
e-chords

Other versions:

tabs Dudu Nobre - A grande família (solo)
auto scroll beats size up size down change color hide chords drawings
tab show chords e-chords YouTube Clip e-chords hide all tabs e-chords go to top tab

share