Ducktails

Little Window

Ducktails

tabs

by  CARLLUZ

save to print version add songbook text version e-mail correct tuner
chordsukulelecavacokeyboardtabbassdrumsharmonicaflute Guitar Pro
close

there isn't a video lesson for this song

chords

Little Window

	  		

A fun little jingle that can be played as high or low as you want. 

This is my first tab and may not be 100% accurate. Not sure how the second guitar is 
tabbed or the ending. 

(Intro played once): 

e|-11-------11----9-----------------| 
B|--------9-----------11--9--11-----| 
G|-----10-----10------10-----10-----| 
D|-11-------------11------11--------| 
A|----------------------------------| 
E|----------------------------------| 

(Following riff, played twice till next riff): 

e|--------------------9--------| 
B|-7----9--7---9/11-----11-----| 
G|----8------8-----10-----10---| 
D|-9-----------9/11------------| 
A|-----------------------------| 
E|-----------------------------| 

(3rd riff): 

e|-11----9--------------9---------| 
B|---------11----9h11-----11------| 
G|----10-----10------10-----10----| 
D|-11------------11---------------| 
A|--------------------------------| 
E|--------------------------------| 

(Once you learn these tabs its pretty simple to learn the timing and repeats by 
listening to the song.) 

************************************ 

| /   slide up 
| h   hammer-on 


************************************ 
		  

See also:

tabs Deep Purple - Black Night tabs Deep Purple - Soldier Of Fortune tabs Deep Purple - Demon's Eye tabs Ira! - Envelheço na Cidade tabs Deep Purple - Smoke on the Water (correct) tabs Ira! - Tarde Vazia (Acústico)
e-chords

Other versions:

tabs Ducktails - Little Window
auto scroll beats size up size down change color hide chords drawings
tab show chords e-chords YouTube Clip e-chords hide all tabs e-chords go to top tab

share