Drew Chadwick

Something Else

Drew Chadwick

tabs Expert expert

by  JOAOEWERTON

save to print version add songbook text version e-mail correct tuner
chordsukulelecavacokeyboardtabbassdrumsharmonicaflute Guitar Pro
close

there isn't a video lesson for this song

chords

Something Else

	  		
 

Intro: 

|---------------------0----------|--------------------0---------------------| 
|---3-3---------3----3--3-----3--|--3-3---------3----3--3-------------------| 
|---5-0-0---------0-0-----0---5--|--5-0-0---------0-0-----0---0-0-0-0-0-0-0-| 
|---------------4--4----4--4-----|--------------4--4----4--4-4-4-4-4-4-4-4-4| 
|---3------0h3--5-------5--------|--3------0h3--5-------5-------------------| 
|-----------------------------3--|------------------------------------------| 

Verse: (Guitar tab when verse is playing) 

|-----------------------| 
|---3-3------3-3----3---| 
|---5-0-0--------0--5---| 
|------------4-4--4-----| 
|---3--------5-0--------| 
|-------------------3---| 

Chorus: (Guitar tab when Chorus is playing) 

|---------------------------------------| 
|---3-3-3-------3-5------3-5-----3-3-3--| 
|---0-5--0----0----0----0---0----0-5----| 
|---------------------------------------| 
|---3---------5----5----0---0-----------| 
|--------------------------------3------|
 
		  

See also:

tabs Deep Purple - Burn tabs Deep Purple - No No No tabs Deep Purple - Smoke on the water(ver. 2) tabs Deep Purple - Time To Kill tabs Deep Purple - Smoke on The Water (ver.3) tabs Deep Purple - Fireball
e-chords

Other versions:

tabs Drew Chadwick - Something Else tabs Seether - Something Else
auto scroll beats size up size down change color hide chords drawings
tab show chords e-chords YouTube Clip e-chords hide all tabs e-chords go to top tab

share