Dredg

I Don't Know

Dredg

tabs

by  BRUNBLAZKOWSKI

save to print version add songbook text version e-mail correct tuner
chordsukulelecavacokeyboardtabbassdrumsharmonicaflute Guitar Pro
close

there isn't a video lesson for this song

chords

I Don't Know

	  		

Intro and verse 1 
Lead 
E|-----------------------------------------------| 
B|------------------------16---------18----------| 
G|--18---------17--------------------------------| 
D|-----------------------------------------------| 
A|-----------------------------------------------| 
E|-----------------------------------------------| 
Rhythm 
E|--9999999999-8888888888-1111111111-1313131313--| 
B|--xxxxxxxxxx-xxxxxxxxxx-xxxxxxxxxx-xxxxxxxxxx--| 
G|--6666666666-5555555555-8888888888-1010101010--| 
D|-----------------------------------------------| 
A|-----------------------------------------------| 
E|-----------------------------------------------| 

Chorus+ @0:41 
Rhythm Guitar  
"I don't know . . ." 
E|--------------|-------------| 
B|--------9-----|-------------| 
G|--10----10----|--10----6----| 
D|--11----10----|--11----8----| 
A|--11----8-----|--11----8----| 
E|--9-----8-----|--9-----6----| 

Bridge 
Staccato x2 
"Give it up . . ." 
E|---------------------| 
B|--18---18---18---18--| 
G|-(22)-(22)-(22)-(22)-| 
D|---------------------| 
A|---------------------| 
E|---------------------| 

verse 2 
"Well I don't know what to believe anymore . . ." 
E|--------------------------------|-----------------11-----13--8--| 
B|------9-----8------6--------13--|------9----8-----------x-------| 
G|---------------------5----------|--------------12-----12-----8--| 
D|--/10----/8-----/6------/10-----|--/10---/8---------------------| 
A|--------------------------------|-------------------------------| 
E|--------------------------------|-------------------------------| 

Chorus 
Lead (with tremolo and delay effects) 
E|--------------------------------------------| 
B|--------------------------------------------| 
G|----------------------8---------------------| 
D|--11--------10-----------------10--------8--| 
A|--------------------------------------------| 
E|--------------------------------------------| 
Rhythm Guitar @1:32 
E|--------------|-------------| 
B|--------9-----|-------------| 
G|--10----10----|-------------| 
D|--11----10----|--11----8----| 
A|--11----8-----|--11----8----| 
E|--9-----8-----|--9-----6----| 

Post Chorus 
Lead @1:52 
"If I go somewhere . . ." 
E|---4-4-4--3-3-3-8-8-8---13-13-13-13----| 
B|---------------------------------------| 
G|--5-5-5--3-3-3-8-8-8--13---13-13---13--| 
D|---------------------------------------| 
A|---------------------------------------| 
E|---------------------------------------| 
Rhythm 
E|---------------------------------------| 
B|---------------------------------------| 
G|---------------------------------------| 
D|--3---3-6---6-11--11--111111-8-8-8-8---| 
A|--3---3-6---6-11--11--111111-8-8-8-8---| 
E|--1---1-4---4-9---9---9-9-9--6-6-6-6---| 


Break 
Slide Guitar arranged for guitar 
E|---------------------------------------------------------------------| 
B|--------------------------20/(13)/(17)v------------------------------| 
G|-----15~------/20--22~-------------------------22/18------22/18------| 
D|--/16----------------------------------------------------------------| 
A|---------------------------------------------------------------------| 
E|---------------------------------------------------------------------| 

E|-----------------------------------------------------------------1---| 
B|-----------------------------------------------------------------2---| 
G|--15/17-----------------------15/17---------20/(13)--------------3---| 
D|----------------*12/15-----------------------------*12/15--------3---| 
A|-----------------------------------------------------------------1---| 
E|---------------------------------------------------------------------| 
                  *Harmonic                          *Harmonic 

Post Chorus @3:04 
Lead 
"If I go somewhere . . ." 
E|---4-4-4--3-3-3-8-8-8---13-13-13-13----| 
B|---------------------------------------| 
G|-/5-5-5--3-3-3-8-8-8--13---13-13---13--| 
D|---------------------------------------| 
A|---------------------------------------| 
E|---------------------------------------| 
Rhythm 
E|---------------------------------------| 
B|---------------------------------------| 
G|---------------------------------------| 
D|--3---3-6---6-11--11--111111-8-8-8-8---| 
A|--3---3-6---6-11--11--111111-8-8-8-8---| 
E|--1---1-4---4-9---9---9-9-9--6-6-6-6---| 

Bridge 
Staccato x2 
"Give it up . . ." 
E|---------------------| 
B|--18---18---18---18--| 
G|-(22)-(22)-(22)-(22)-| 
D|---------------------| 
A|---------------------| 
E|---------------------| 
		  

See also:

tabs Ira! - Envelheço Na Cidade(Solo - Acustivo Mtv) tabs Deep Purple - No No No tabs Deep Purple - Black Night tabs Deep Purple - Smoke on the water(ver. 2) tabs Deep Purple - Since Youve Been Gone tabs Albert Hammond Jr - In My Room
e-chords

Other versions:

tabs Mad Season - I Do'nt Know Anything tabs Third Day - I don't know tabs Dredg - I Don't Know tabs Jimmy Buffett - I Don't Know And I Don't Care tabs Jesus Christ Superstar - I don't Know How to Love Him tabs From Indian Lakes - I Don't Know You
auto scroll beats size up size down change color hide chords drawings
tab show chords e-chords YouTube Clip e-chords hide all tabs e-chords go to top tab

share