Dreamers

The Last Love Song

Dreamers

tabs

by  RENEJUNIOR

save to print version add songbook text version e-mail correct tuner
chordsukulelecavacokeyboardtabbassdrumsharmonicaflute Guitar Pro
close

there isn't a video lesson for this song

chords

The Last Love Song

	  		Intro 

e|9-----9------10------10---------------------------| 
B|--10-----10------10------10-----------------------| 
G|--------------------------------------------------| 
D|--------------------------------------------------| x4 
A|--------------------------------------------------|  
E|--------------------------------------------------| 


Verse 

e|--------------------------------------------------| 
B|--------------------------------------------------| 
G|--------------------------------------------------| 
D|--------------------------------------------------| x4 
A|---------5-5-5-5-0-0-0-0-0-0-0-0-0----------------| 
E|-2-2-2-2------------------------------------------| 


Chorus 

e|--2--2--2--2--5--5--5--5--5--5--5--5--5--5--5--5--| 
B|--2--2--2--2--7--7--7--7--5--5--5--5--5--5--5--5--| 
G|--2--2--2--2--7--7--7--7--6--6--6--6--6--6--6--6--| 
D|--4--4--4--4--7--7--7--7--7--7--7--7--7--7--7--7--| 
A|--4--4--4--4--5--5--5--5--7--7--7--7--7--7--7--7--| 
E|--2--2--2--2--------------5--5--5--5--5--5--5--5--| 
                                                                               
e|--2--2--2--2--5--5--5--5--7--7--7--7--7--7--7--7--| 
B|--2--2--2--2--7--7--7--7--9--9--9--9--9--9--9--9--| 
G|--2--2--2--2--7--7--7--7--9--9--9--9--9--9--9--9--| 
D|--4--4--4--4--7--7--7--7--9--9--9--9--9--9--9--9--| 
A|--4--4--4--4--5--5--5--5--7--7--7--7--7--7--7--7--| 
E|--2--2--2--2--------------------------------------| 

e|--2--2--2--2--5--5--5--5--5--5--5--5--5--5--5--5--| 
B|--2--2--2--2--7--7--7--7--5--5--5--5--5--5--5--5--| 
G|--2--2--2--2--7--7--7--7--6--6--6--6--6--6--6--6--| 
D|--4--4--4--4--7--7--7--7--7--7--7--7--7--7--7--7--| 
A|--4--4--4--4--5--5--5--5--7--7--7--7--7--7--7--7--| 
E|--2--2--2--2--------------5--5--5--5--5--5--5--5--| 
                                                                               
e|--2--2--2--2--5--5--5--5--7--7--7--7--7--7--7--7--| 
B|--2--2--2--2--7--7--7--7--9--9--9--9--9--9--9--9--| 
G|--2--2--2--2--7--7--7--7--9--9--9--9--9--9--9--9--| 
D|--4--4--4--4--7--7--7--7--9--9--9--9--9--9--9--9--| 
A|--4--4--4--4--5--5--5--5--7--7--7--7--7--7--7--7--| 
E|--2--2--2--2--------------------------------------| 

e|--9--9--------5--5--------7--7--------7--7--7--7--| 
B|--9--10-------7--7--------9--9--------9--9--9--9--| 
G|--10-10-------7--7--------9--9--------9--9--9--9--| 
D|--11-11-------7--7--------9--9--------9--9--9--9--| x2 
A|--11-11-------5--5--------7--7--------7--7--7--7--| 
E|--9--9--------------------------------------------| 


Interlude 

e|9-----9------10------10---------------------------| 
B|--10-----10------10------10-----------------------| 
G|--------------------------------------------------| 
D|--------------------------------------------------| x4 
A|--------------------------------------------------|  
E|--------------------------------------------------| 


Verse 

e|--------------------------------------------------| 
B|--------------------------------------------------| 
G|--------------------------------------------------| 
D|--------------------------------------------------| x4 
A|---------5-5-5-5-0-0-0-0-0-0-0-0-0----------------| 
E|-2-2-2-2------------------------------------------| 


Chorus 

e|--2--2--2--2--5--5--5--5--5--5--5--5--5--5--5--5--| 
B|--2--2--2--2--7--7--7--7--5--5--5--5--5--5--5--5--| 
G|--2--2--2--2--7--7--7--7--6--6--6--6--6--6--6--6--| 
D|--4--4--4--4--7--7--7--7--7--7--7--7--7--7--7--7--| 
A|--4--4--4--4--5--5--5--5--7--7--7--7--7--7--7--7--| 
E|--2--2--2--2--------------5--5--5--5--5--5--5--5--| 
                                                                               
e|--2--2--2--2--5--5--5--5--7--7--7--7--7--7--7--7--| 
B|--2--2--2--2--7--7--7--7--9--9--9--9--9--9--9--9--| 
G|--2--2--2--2--7--7--7--7--9--9--9--9--9--9--9--9--| 
D|--4--4--4--4--7--7--7--7--9--9--9--9--9--9--9--9--| 
A|--4--4--4--4--5--5--5--5--7--7--7--7--7--7--7--7--| 
E|--2--2--2--2--------------------------------------| 

e|--2--2--2--2--5--5--5--5--5--5--5--5--5--5--5--5--| 
B|--2--2--2--2--7--7--7--7--5--5--5--5--5--5--5--5--| 
G|--2--2--2--2--7--7--7--7--6--6--6--6--6--6--6--6--| 
D|--4--4--4--4--7--7--7--7--7--7--7--7--7--7--7--7--| 
A|--4--4--4--4--5--5--5--5--7--7--7--7--7--7--7--7--| 
E|--2--2--2--2--------------5--5--5--5--5--5--5--5--| 
                                                                               
e|--2--2--2--2--5--5--5--5--7--7--7--7--7--7--7--7--| 
B|--2--2--2--2--7--7--7--7--9--9--9--9--9--9--9--9--| 
G|--2--2--2--2--7--7--7--7--9--9--9--9--9--9--9--9--| 
D|--4--4--4--4--7--7--7--7--9--9--9--9--9--9--9--9--| 
A|--4--4--4--4--5--5--5--5--7--7--7--7--7--7--7--7--| 
E|--2--2--2--2--------------------------------------| 

e|--9--9--------5--5--------7--7--------7--7--7--7--| 
B|--9--10-------7--7--------9--9--------9--9--9--9--| 
G|--10-10-------7--7--------9--9--------9--9--9--9--| 
D|--11-11-------7--7--------9--9--------9--9--9--9--| x2 
A|--11-11-------5--5--------7--7--------7--7--7--7--| 
E|--9--9--------------------------------------------| 


Solo 

e|-15--------12----15----9------------9--12--9--------9--12------9--------9--| 
B|--------------------------------12--------------12---------12-------12b----| 
G|---------------------------------------------------------------------------| 
D|---------------------------------------------------------------------------| 
A|---------------------------------------------------------------------------| 
E|---------------------------------------------------------------------------| 

e|-----9--------9-----------------------------------| 
B|-12b------12b----12----10-------------------------| 
G|--------------------------------------------------| 
D|--------------------------------------------------| 
A|--------------------------------------------------| 
E|--------------------------------------------------| 


Verse 

e|--------------------------------------------------| 
B|--------------------------------------------------| 
G|--------------------------------------------------| 
D|--------------------------------------------------| x2 
A|---------5-5-5-5-0-0-0-0-0-0-0-0-0----------------| 
E|-2-2-2-2------------------------------------------| 


Chorus 

e|--2--2--2--2--5--5--5--5--5--5--5--5--5--5--5--5--| 
B|--2--2--2--2--7--7--7--7--5--5--5--5--5--5--5--5--| 
G|--2--2--2--2--7--7--7--7--6--6--6--6--6--6--6--6--| 
D|--4--4--4--4--7--7--7--7--7--7--7--7--7--7--7--7--| 
A|--4--4--4--4--5--5--5--5--7--7--7--7--7--7--7--7--| 
E|--2--2--2--2--------------5--5--5--5--5--5--5--5--| 
                                                                               
e|--2--2--2--2--5--5--5--5--7--7--7--7--7--7--7--7--| 
B|--2--2--2--2--7--7--7--7--9--9--9--9--9--9--9--9--| 
G|--2--2--2--2--7--7--7--7--9--9--9--9--9--9--9--9--| 
D|--4--4--4--4--7--7--7--7--9--9--9--9--9--9--9--9--| 
A|--4--4--4--4--5--5--5--5--7--7--7--7--7--7--7--7--| 
E|--2--2--2--2--------------------------------------| 

e|--2--2--2--2--5--5--5--5--5--5--5--5--5--5--5--5--| 
B|--2--2--2--2--7--7--7--7--5--5--5--5--5--5--5--5--| 
G|--2--2--2--2--7--7--7--7--6--6--6--6--6--6--6--6--| 
D|--4--4--4--4--7--7--7--7--7--7--7--7--7--7--7--7--| 
A|--4--4--4--4--5--5--5--5--7--7--7--7--7--7--7--7--| 
E|--2--2--2--2--------------5--5--5--5--5--5--5--5--| 
                                                                               
e|--2--2--2--2--5--5--5--5--7--7--7--7--7--7--7--7--| 
B|--2--2--2--2--7--7--7--7--9--9--9--9--9--9--9--9--| 
G|--2--2--2--2--7--7--7--7--9--9--9--9--9--9--9--9--| 
D|--4--4--4--4--7--7--7--7--9--9--9--9--9--9--9--9--| 
A|--4--4--4--4--5--5--5--5--7--7--7--7--7--7--7--7--| 
E|--2--2--2--2--------------------------------------| 

e|--9--9--------5--5--------7--7--------7--7--7--7--| 
B|--9--10-------7--7--------9--9--------9--9--9--9--| 
G|--10-10-------7--7--------9--9--------9--9--9--9--| 
D|--11-11-------7--7--------9--9--------9--9--9--9--| x4 
A|--11-11-------5--5--------7--7--------7--7--7--7--| 
E|--9--9--------------------------------------------| 


************************************ 

| b   Bend 

************************************ 
		  

See also:

tabs Deep Purple - Pictures of Home tabs Deep Purple - Lay Down tabs Deep Purple - Stormbringer tabs Deep Purple - A Touch Away tabs Doa - Sexyest Girl tabs Ira! - Pošo de Sensibilidade (Ac˙stico MTv intro)
e-chords

Other versions:

tabs Dreamers - The Last Love Song
auto scroll beats size up size down change color hide chords drawings
tab show chords e-chords YouTube Clip e-chords hide all tabs e-chords go to top tab

share