Dream Theater

Stream Of Consciousness

Dream Theater

tabs Expert expert

by  IURYGUITARPIBA

save to print version add songbook text version e-mail correct tuner
chordsukulelecavacokeyboardtabbassdrumsharmonicaflute Guitar Pro
close

there isn't a video lesson for this song

chords

Stream Of Consciousness

	  		Stream of Consciousness (Dream Theater) 
Dream Theater  
Por: Iury Flores 
 
Stream of Consciousness  
Tablatura sofrida em fazer por: Iury Flores 
 
 
Guitar 1 
 
D#||--------------------------------|--------------------------------| 
A#||--------------------------------|--------------------------------| 
F#||-----3--2--3--2-----3-----2--3--|-----3--2--3--2-----3-----2--3--| 
C#||--0--------------0-----0--------|--------------------------------| 
G#||--------------------------------|--3--------------3-----3--------| 
D#||--------------------------------|--------------------------------| 
 
 
--------------------------------|--------------------------------| 
--------------------------------|--------------------------------| 
-----3--2--3--2-----3-----2--3--|-----3--2--3--2-----3-----2--3--| 
--0--------------0-----0--------|--------------------------------| 
--------------------------------|--3--------------3-----3--------| 
--------------------------------|--------------------------------| 
 
 
--------------------------------|--------------------------------| 
--------------------------------|--------------------------------| 
-----3--2--3--2-----3-----2--3--|-----3--2--3--2-----3-----2--3--| 
--0--------------0-----0--------|--------------------------------| 
--------------------------------|--3--------------3-----3--------| 
--------------------------------|--------------------------------| 
 
 
--------------------------------|--------------------------------| 
--------------------------------|--------------------------------| 
-----3--2--3--2-----3-----2--3--|-----3--2--3--2-----3-----2--3--| 
--0--------------0-----0--------|--------------------------------| 
--------------------------------|--3--------------3-----3--------| 
--------------------------------|--------------------------------| 
 
 
-----------------------|-----------------------|-----------------------| 
--3--------------------|--3--------------------|--3--------------------| 
--2--------------------|--5--------------------|--2--------------------| 
--0--------------------|--5--------------------|--0--------------------| 
--0--------------------|--3--------------------|--0--------------------| 
-----------------------|--3--------------------|-----------------------| 
 
 
-------------------------|-----------------------|-------------------------| 
--3----------------------|--1--------------------|-------------------------| 
--5----------------------|--3--------------------|--2----------------2--2--| 
--5----------------5--5--|--3--------------------|--2----------------2--2--| 
--3----------------3--3--|--1--------------------|--0----------------0--0--| 
--3----------------3--3--|--1--------------------|-------------------------| 
 
 
------------------------|------------------------| 
------------------------|------------------------| 
------------------------|-------------2----------| 
--5----------3----------|--2----------2----------| 
--5----------3----------|--2----------0----------| 
--3----------1----------|--0---------------------| 
 
 
--------------------------------|--------------------------------| 
--------------------------------|--------------------------------| 
--------------------------------|--------------------------------| 
-----7-----8--------7-----8-----|-----8-----7--------8-----7-----| 
--5--5--5--5--5--5--5--5--5--5--|--3--3--3--3--3--3--3--3--3--3--| 
--------------------------------|--------------------------------| 
 
 
--------------------------------|--------------------------------| 
--------------------------------|--------------------------------| 
--------------------------------|--------------------------------| 
-----7-----8--------7-----8-----|-----8-----7--------8-----7-----| 
--5--5--5--5--5--5--5--5--5--5--|--3--3--3--3--3--3--3--3--3--3--| 
--------------------------------|--------------------------------| 
 
 
------------------------------------|----------------------------------| 
------------------------------------|----------------------------------| 
------------------------------------|----------------------------------| 
------------------------------------|----------------------------------| 
-----12-----10--------12-----10-----|-----10-----8--------10-----8-----| 
--6--6---6--6---6--6--6---6--6---6--|--5--5---5--5--5--5--5---5--5--5--| 
 
 
--------------------------------|-------------------------------| 
--------------------------------|-------------------------------| 
--------------------------------|--------------------2-----2----| 
--------------------2-----------|--------------------2-----2----| 
-----8-----7--------------5-----|-----5-----4-----0--0--0--0----| 
--3--3--3--3--3--1--1--1--1--1--|--0--0--0--0--0----------------| 
 
 
--------------------------------|--------------------------------| 
--------------------------------|--------------------------------| 
--------------------------------|--------------------------------| 
-----7-----8--------7-----8-----|-----8-----7--------8-----7-----| 
--5--5--5--5--5--5--5--5--5--5--|--3--3--3--3--3--3--3--3--3--3--| 
--------------------------------|--------------------------------| 
 
 
--------------------------------|--------------------------------| 
--------------------------------|--------------------------------| 
--------------------------------|--------------------------------| 
-----7-----8--------7-----8-----|-----8-----7--------8-----7-----| 
--5--5--5--5--5--5--5--5--5--5--|--3--3--3--3--3--3--3--3--3--3--| 
--------------------------------|--------------------------------| 
 
 
------------------------------------|----------------------------------| 
------------------------------------|----------------------------------| 
------------------------------------|----------------------------------| 
------------------------------------|----------------------------------| 
-----12-----10--------12-----10-----|-----10-----8--------10-----8-----| 
--6--6---6--6---6--6--6---6--6---6--|--5--5---5--5--5--5--5---5--5--5--| 
 
 
--------------------------------|-------------------------------| 
--------------------------------|-------------------------------| 
--------------------------------|--------------------2-----2----| 
--------------------2-----------|--------------------2-----2----| 
-----8-----7--------------5-----|-----5-----4-----0--0--0--0----| 
--3--3--3--3--3--1--1--1--1--1--|--0--0--0--0--0----------------| 
 
 
--------------------------------------|--------------------------------| 
--------------------------------------|--------------------------------| 
--------------------------------------|--------------------------------| 
-----8--7--8--7-----8-----7--8--7-----|-----8--7--8--7-----8-----7--8--| 
--5--------------5-----5-----------5--|--------------------------------| 
--------------------------------------|--8--------------8-----8--------| 
 
 
--------------------------------------|--------------------------------| 
--------------------------------------|--------------------------------| 
--------------------------------------|--------------------------------| 
-----8--7--8--7-----8-----7--8--7-----|-----8--7--8--7-----8-----7--8--| 
--5--------------5-----5-----------5--|--------------------------------| 
--------------------------------------|--8--------------8-----8--------| 
 
 
--------------------------------------|--------------------------------| 
--------------------------------------|--------------------------------| 
--------------------------------------|--------------------------------| 
--------------------------------------|--------------------------------| 
-----8--7--8--7--------8--7--8--7-----|-----8--7--8--7-----8-----7--8--| 
--5--------------5--6--------------6--|--8--------------3-----3--------| 
 
 
--------------------------------------|--------------------------------| 
--------------------------------------|--------------------------------| 
--------------------------------------|--------------------------------| 
--------------------------------------|-----3--2--3--2-----3-----2--3--| 
-----8--7--8--7--------8--7--8--7-----|--------------------------------| 
--5--------------5--6--------------6--|--1--------------0-----0--------| 
 
 
--------------------------------------|-------------------------------------| 
--------------------------------------|-------------------------------------| 
--------------------------------------|-------------------------------------| 
--------------------------------------|-----8--7--8--7--------8--7--8--7----| 
-----8--7--8--7--------8--7--8--7-----|-------------------------------------| 
--5--------------0--5--------------0--|--5--------------0--5----------------| 
 
 
--------------------------------|--------------------------------| 
--------------------------------|--------------------------------| 
--------------------------------|--------------------------------| 
-----7-----8--------7-----8-----|-----8-----7--------8-----7-----| 
--5--5--5--5--5--5--5--5--5--5--|--3--3--3--3--3--3--3--3--3--3--| 
--------------------------------|--------------------------------| 
 
 
--------------------------------|--------------------------------| 
--------------------------------|--------------------------------| 
--------------------------------|--------------------------------| 
-----7-----8--------7-----8-----|-----8-----7--------8-----7-----| 
--5--5--5--5--5--5--5--5--5--5--|--3--3--3--3--3--3--3--3--3--3--| 
--------------------------------|--------------------------------| 
 
 
------------------------------------|----------------------------------| 
------------------------------------|----------------------------------| 
------------------------------------|----------------------------------| 
------------------------------------|----------------------------------| 
-----12-----10--------12-----10-----|-----10-----8--------10-----8-----| 
--6--6---6--6---6--6--6---6--6---6--|--5--5---5--5--5--5--5---5--5--5--| 
 
 
--------------------------------|-------------------------------| 
--------------------------------|-------------------------------| 
--------------------------------|--------------------2-----2----| 
--------------------2-----------|--------------------2-----2----| 
-----8-----7--------------5-----|-----5-----4-----0--0--0--0----| 
--3--3--3--3--3--1--1--1--1--1--|--0--0--0--0--0----------------| 
 
 
--------------------|--------------------|--------------------| 
--------------------|--------------------|--------------------| 
--------------------|--------------------|--------------------| 
--2------3----------|--5------7----------|--2------3----------| 
--2------3----------|--5------7----------|--2------3----------| 
--0------1----------|--3------5----------|--0------1----------| 
 
 
--------------------|--------------------|--------------------| 
--------------------|--------------------|--------------------| 
--6------7----------|--------------------|--------------------| 
--6------7----------|--2------3----------|--5------7----------| 
--4------5----------|--2------3----------|--5------7----------| 
--------------------|--0------1----------|--3------5----------| 
 
 
--------------------|----------------------|------------------------| 
--------------------|--8---5---6--3--------|------------------------| 
--------------------|-------------2--------|------------------------| 
--2------3----------|--5---2---3--0--------|------------------------| 
--2------3----------|-------------0--------|------------------------| 
--0------1----------|----------------------|--0---1/--6----5----5-6-| 
 
 
-----------------------------|------------------------| 
-----------------------------|------------------------| 
-----------------------------|------------------------| 
-----------------------------|------------------------| 
--4--5-7--8-7---5--4---------|------------------------| 
---------------------6-5-3-1-|--0---1/--6----5----5-6-| 
 
 
-------------------------|------------------------| 
--8--8-5--5-6--6-3-------|------------------------| 
-----------------2-------|------------------------| 
--5--5-2--2-3--3-0-------|------------------------| 
-----------------0-------|------------------------| 
-------------------------|--0---1/--6----5----5-6-| 
 
 
-----------------------------|------------------------|-----------------------| 
-----------------------------|------------------------|-----------------------| 
-----------------------------|------------------------|------------7----------| 
-----------------------------|------------------------|------------7----------| 
--4--5-7--8-7---5--4---------|------------------------|--4--5-7--8-5----------| 
---------------------6-5-3-1-|--0---1/--6----5----5-6-|-----------------------| 
 
 
------------------------|-----------------------------|------------------------| 
------------------------|-----------------------------|------------------------| 
------------------------|-----------------------------|------------------------| 
------------------------|-----------------------------|------------------------| 
------------------------|--4--5-7--8-7---5--4---------|------------------------| 
--0---1/--6----5----5-6-|---------------------6-5-3-1-|--0---1/--6----5----5-6-| 
 
 
-------------------------|------------------------| 
--8--8-5--5-6--6-3-------|------------------------| 
-----------------2-------|------------------------| 
--5--5-2--2-3--3-0-------|------------------------| 
-----------------0-------|------------------------| 
-------------------------|--0---1/--6----5----5-6-| 
 
 
-----------------------------|------------------------|-----------------------| 
-----------------------------|------------------------|-----------------------| 
-----------------------------|------------------------|------------7----------| 
-----------------------------|------------------------|------------7----------| 
--4--5-7--8-7---5--4---------|------------------------|--4--5-7--8-5----------| 
---------------------6-5-3-1-|--0---1/--6----5----5-6-|-----------------------| 
 
 
--------------------|--------------------|---------------------| 
--------------------|--------------------|---------------------| 
--------------------|--------------------|---------------------| 
--2------3----------|--5------7----------|--8------11----------| 
--2------3----------|--5------7----------|--8------11----------| 
--0------1----------|--3------5----------|--6------9-----------| 
 
 
------------------------|--------------------|--------------------| 
------------------------|--------------------|--------------------| 
------------------14/---|--------------------|--------------------| 
--12------14------14/---|--2------3----------|--5------7----------| 
--12------14------12/---|--2------3----------|--5------7----------| 
--10------12------------|--0------1----------|--3------5----------| 
 
 
---------------------|--------------------|----------------------| 
---------------------|--------------------|----------------------| 
---------------------|--------------------|----------------------| 
--8------10----------|--12----------------|--7---------7--7-7----| 
--8------10----------|--12----------------|--7---------7--7-7----| 
--6------8-----------|--10----------------|--5---------5--5-5----| 
 
 
----------------------|----------------------|----------------------------| 
----------------------|----------------------|----------------------------| 
----------------------|----------------------|----------------------------| 
----7-7-7-7-----------|--7---------7--7-7----|----7----------------5-7----| 
----7-7-7-7-----------|--7---------7--7-7----|----7------------4-5--------| 
----5-5-5-5-----------|--5---------5--5-5----|----5------5-6-5------------| 
 
 
----------------------|----------------------|----------------------| 
----------------------|----------------------|----------------------| 
----------------------|----------------------|----------------------| 
--7---------7--7-7----|----7-7-7-7-----------|--7---------7--7-7----| 
--7---------7--7-7----|----7-7-7-7-----------|--7---------7--7-7----| 
--5---------5--5-5----|----5-5-5-5-----------|--5---------5--5-5----| 
 
 
----------------------------|---------------------------------------| 
----------------------------|---------------------------------------| 
----------------------------|---------------------------------------| 
----7----------------5-7----|---------------------------------------| 
----7------------4-5--------|--12-0-0-10-0-12-13p12-0-4-0-5-7-0-0-5-| 
----5------5-6-5------------|---------------------------------------| 
 
 
-----------------------------------|---------------------------------------| 
-----------------------------------|---------------------------------------| 
-----------------------------------|---------------------------------------| 
-----------------------------------|---------------------------------------| 
--0-7-8p7-0-7-0-8-10-0-8-7-0-5-0-4-|--12-0-0-10-0-12-13p12-0-4-0-5-7-0-0-5-| 
-----------------------------------|---------------------------------------| 
 
 
-------------------------------------|---------------------------------------| 
-------------------------------------|---------------------------------------| 
-------------------------------------|---------------------------------------| 
-------------------------------------|---------------------------------------| 
--0-7-8p7-0-7-0-8-10-0-8-7-0-13-10-0-|--12-0-0-10-0-12-13p12-0-4-0-5-7-0-0-5-| 
-------------------------------------|---------------------------------------| 
 
 
-----------------------------------|---------------------------------------| 
-----------------------------------|---------------------------------------| 
-----------------------------------|---------------------------------------| 
-----------------------------------|---------------------------------------| 
--0-7-8p7-0-7-0-8-10-0-8-7-0-5-0-4-|--12-0-0-10-0-12-13p12-0-4-0-5-7-0-0-5-| 
-----------------------------------|---------------------------------------| 
 
 
-------------------------------------|----------------------------------| 
-------------------------------------|----------------------------------| 
-------------------------------------|--14---12--14-15------------------| 
-------------------------------------|-------------------11--12-14---12-| 
--0-7-8p7-0-7-0-8-10-0-8-7-0-13-10-0-|----------------------------------| 
-------------------------------------|----------------------------------| 
 
 
------------------------------------|----------------------------------| 
------------------------------------|----------------------------------| 
------------------12----------------|--14---12--14-15------------------| 
---14-15---14--15-----15-14--12--11-|-------------------11--12-14---12-| 
------------------------------------|----------------------------------| 
------------------------------------|----------------------------------| 
 
 
------------------------------------|----------------------------------| 
------------------------------------|----------------------------------| 
------------------12---------15-12--|--14---12--14-15------------------| 
---14-15---14--15-----15-14---------|-------------------11--12-14---12-| 
------------------------------------|----------------------------------| 
------------------------------------|----------------------------------| 
 
 
------------------------------------|----------------------------------| 
------------------------------------|----------------------------------| 
------------------12----------------|--14---12--14-15------------------| 
---14-15---14--15-----15-14--12--11-|-------------------11--12-14---12-| 
------------------------------------|----------------------------------| 
------------------------------------|----------------------------------| 
 
 
------------------------------------|---------------|---------------| 
------------------------------------|---------------|---------------| 
------------------12---------15-12--|--7------5--5--|--3------2--2--| 
---14-15---14--15-----15-14---------|--7------5--5--|--3------2--2--| 
------------------------------------|--5------3--3--|--1------0--0--| 
------------------------------------|---------------|---------------| 
 
 
------------------|------------------|---------------|---------------| 
------------------|------------------|---------------|---------------| 
------------------|---------2--2--2--|--7------5--5--|--3------2--2--| 
--5------3--3--3--|--2------2--2--2--|--7------5--5--|--3------2--2--| 
--5------3--3--3--|--2------0--0--0--|--5------3--3--|--1------0--0--| 
--3------1--1--1--|--0---------------|---------------|---------------| 
 
 
------------------|------------------|---------------|---------------| 
------------------|------------------|---------------|---------------| 
------------------|---------2--2--2--|--7------5--5--|--3------2--2--| 
--5------3--3--3--|--2------2--2--2--|--7------5--5--|--3------2--2--| 
--5------3--3--3--|--2------0--0--0--|--5------3--3--|--1------0--0--| 
--3------1--1--1--|--0---------------|---------------|---------------| 
 
 
------------------|------------------|---------------|---------------| 
------------------|------------------|---------------|---------------| 
------------------|---------2--2--2--|--7------5--5--|--3------2--2--| 
--5------3--3--3--|--2------2--2--2--|--7------5--5--|--3------2--2--| 
--5------3--3--3--|--2------0--0--0--|--5------3--3--|--1------0--0--| 
--3------1--1--1--|--0---------------|---------------|---------------| 
 
 
------------------|------------------|------------------| 
------------------|------------------|------------------| 
------------------|------------------|------------------| 
--5------3--3--3--|--2------2--2--2--|--2------2--2--2--| 
--5------3--3--3--|--2------2--2--2--|--2------2--2--2--| 
--3------1--1--1--|--0------0--0--0--|--0------0--0--0--| 
 
 
------------------------|-----------------------------|------------------------| 
------------------------|-----------------------------|------------------------| 
------------------------|-----------------------------|------------------------| 
------------------------|--2--3-5--8-7---5--3-2-------|------------------------| 
--0---1/--5----4----4-5-|-----------------------5-4-1-|--0---1/--5----4----4-5-| 
------------------------|-----------------------------|------------------------| 
 
 
-----------------------------|------------------------| 
--11--11-8--8-10--10-6-------|------------------------| 
-----------------------------|------------------------| 
--8---8--5--5-7---7--3-------|------------------------| 
-----------------------------|--0---1/--5----4----4-5-| 
-----------------------------|------------------------| 
 
 
-----------------------------|------------------------|----------------------| 
-----------------------------|------------------------|--------------3-------| 
-----------------------------|------------------------|--------------2-------| 
--2--3-5--8-7---5--3-2-------|------------------------|--2---3---2---0-------| 
-----------------------5-4-1-|--0---1/--5----4----4-5-|--------------0-------| 
-----------------------------|------------------------|----------------------| 
 
 
---------------|---------------|------------------|------------------| 
---------------|---------------|------------------|------------------| 
--7------5--5--|--3------2--2--|------------------|---------2--2--2--| 
--7------5--5--|--3------2--2--|--5------3--3--3--|--2------2--2--2--| 
--5------3--3--|--1------0--0--|--5------3--3--3--|--2------0--0--0--| 
---------------|---------------|--3------1--1--1--|--0---------------| 
 
 
---------------|---------------|------------------|------------------| 
---------------|---------------|------------------|------------------| 
--7------5--5--|--3------2--2--|------------------|---------2--2--2--| 
--7------5--5--|--3------2--2--|--5------3--3--3--|--2------2--2--2--| 
--5------3--3--|--1------0--0--|--5------3--3--3--|--2------0--0--0--| 
---------------|---------------|--3------1--1--1--|--0---------------| 
 
 
---------------|---------------|------------------|------------------| 
---------------|---------------|------------------|------------------| 
--7------5--5--|--3------2--2--|------------------|---------2--2--2--| 
--7------5--5--|--3------2--2--|--5------3--3--3--|--2------2--2--2--| 
--5------3--3--|--1------0--0--|--5------3--3--3--|--2------0--0--0--| 
---------------|---------------|--3------1--1--1--|--0---------------| 
 
 
---------------|---------------|------------------|------------------| 
---------------|---------------|------------------|------------------| 
--7------5--5--|--3------2--2--|------------------|------------------| 
--7------5--5--|--3------2--2--|--5------3--3--3--|--2------2--2--2--| 
--5------3--3--|--1------0--0--|--5------3--3--3--|--2------2--2--2--| 
---------------|---------------|--3------1--1--1--|--0------0--0--0--| 
 
 
------------------|------------------------|-----------------------------| 
------------------|------------------------|-----------------------------| 
------------------|------------------------|-----------------------------| 
--2------2--2--2--|------------------------|--2--3-5--8-7---5--3-2-------| 
--2------2--2--2--|--0---1/--5----4----4-5-|-----------------------5-4-1-| 
--0------0--0--0--|------------------------|-----------------------------| 
 
 
------------------------|-----------------------------|------------------------| 
------------------------|--11--11-8--8-10--10-6-------|------------------------| 
------------------------|-----------------------------|------------------------| 
------------------------|--8---8--5--5-7---7--3-------|------------------------| 
--0---1/--5----4----4-5-|-----------------------------|--0---1/--5----4----4-5-| 
------------------------|-----------------------------|------------------------| 
 
 
-----------------------------|------------------------|------------------------| 
-----------------------------|------------------------|------------------------| 
-----------------------------|------------------------|------------------------| 
--2--3-5--8-7---5--3-2-------|------------------------|--3---2---3--2---0------| 
-----------------------5-4-1-|--0---1/--5----4----4-5-|---------------------3--| 
-----------------------------|------------------------|------------------------| 
 
 
-------------------|-------------------|-------------------|-------------------| 
-------------------|-------------------|-------------------|-------------------| 
--2----------------|-------------------|--2----------------|-------------------| 
--2----------------|--3----------------|--2----------------|--3----------------| 
--0----------------|--3----------------|--0----------------|--3----------------| 
-------------------|--1----------------|-------------------|--1----------------| 
 
 
-------------------|-------------------|-------------------|-------------------| 
-------------------|-------------------|-------------------|-------------------| 
--5----------------|-------------------|--5----------------|-------------------| 
--5----------------|--6----------------|--5----------------|--6----------------| 
--3----------------|--6----------------|--3----------------|--6----------------| 
-------------------|--4----------------|-------------------|--4----------------| 
 
 
-------------------|------------------|------------------|------------------| 
-------------------|------------------|------------------|------------------| 
-------------------|------------------|------------------|------------------| 
--6/---------------|------------------|------------------|------------------| 
--4/---------------|------------------|------------------|------------------| 
--4/---------------|------------------|------------------|------------------| 
 
 
----------------------------------|----------------------------------| 
----------------------------------|----------------------------------| 
--x-x-6-x-x-x-6-x-x-6-x-x-6-x-x-x-|--x-x-6-x-x-x-6-x-x-6-x-x-6-x-x-x-| 
--x-x-6-x-x-x-6-x-x-6-x-x-6-x-x-x-|--x-x-6-x-x-x-6-x-x-6-x-x-6-x-x-x-| 
----------------------------------|----------------------------------| 
----------------------------------|----------------------------------| 
 
 
----------------------------------|----------------------------------| 
----------------------------------|----------------------------------| 
--x-x-6-x-x-x-6-x-x-6-x-x-6-x-x-x-|--x-x-6-x-x-x-6-x-x-6-x-x-6-x-x-x-| 
--x-x-6-x-x-x-6-x-x-6-x-x-6-x-x-x-|--x-x-6-x-x-x-6-x-x-6-x-x-6-x-x-x-| 
----------------------------------|----------------------------------| 
----------------------------------|----------------------------------| 
 
 
----------------------------------------------------------| 
----------------------------------------------------------| 
--x-x-6-4-x-x-6-4-x-6-4-x-6-4-x-x-x-x-6-4-x-x-6-4-x-6-4-x-| 
--x-x-6-4-x-x-6-4-x-6-4-x-6-4-x-x-x-x-6-4-x-x-6-4-x-6-4-x-| 
----------------------------------------------------------| 
----------------------------------------------------------| 
 
 
----------------------------------------------------------| 
----------------------------------------------------------| 
--x-x-9-7-x-x-9-7-x-9-7-x-9-7-x-x-x-x-9-7-x-x-9-7-x-9-7-x-| 
--x-x-9-7-x-x-9-7-x-9-7-x-9-7-x-x-x-x-9-7-x-x-9-7-x-9-7-x-| 
----------------------------------------------------------| 
----------------------------------------------------------| 
 
 
------------------------------------------------------------------------------| 
------------------------------------------------------------------------------| 
--x-x-12-10-x-x-12-10-x-12-10-x-12-10-x-x-x-x-12-10-x-x-12-10-x-12-10-x-7--9--| 
--x-x-12-10-x-x-12-10-x-12-10-x-12-10-x-x-x-x-12-10-x-x-12-10-x-12-10-x-7--9--| 
------------------------------------------------------------------------5--7--| 
------------------------------------------------------------------------------| 
 
 
---------------------|--------------------------|-------------------| 
---------------------|--------------------------|-------------------| 
--10--------9--------|--7------5--------3-------|--2----------------| 
--10--------9--------|--7------5--------3---6---|--2----------------| 
--8---------7--------|--5------3--------1---6---|--0----------------| 
---------------------|----------------------4---|-------------------| 
 
 
-------------------|-------------------|-------------------|-------------------| 
-------------------|-------------------|-------------------|-------------------| 
-------------------|--2----------------|-------------------|--5----------------| 
--3----------------|--2----------------|--3----------------|--5----------------| 
--3----------------|--0----------------|--3----------------|--3----------------| 
--1----------------|-------------------|--1----------------|-------------------| 
 
 
-------------------|-------------------|-------------------|-------------------| 
-------------------|-------------------|-------------------|-------------------| 
-------------------|--5----------------|-------------------|-------------------| 
--6----------------|--5----------------|--6----------------|--6/---------------| 
--6----------------|--3----------------|--6----------------|--4/---------------| 
--4----------------|-------------------|--4----------------|--4/---------------| 
 
 
------------------|------------------|------------------| 
------------------|------------------|------------------| 
------------------|------------------|------------------| 
------------------|------------------|------------------| 
------------------|------------------|------------------| 
------------------|------------------|------------------| 
 
 
----------------------------------------------------------| 
----------------------------------------------------------| 
--x-x-6-4-x-x-6-4-x-6-4-x-6-4-x-x-x-x-6-4-x-x-6-4-x-6-4-x-| 
--x-x-6-4-x-x-6-4-x-6-4-x-6-4-x-x-x-x-6-4-x-x-6-4-x-6-4-x-| 
----------------------------------------------------------| 
----------------------------------------------------------| 
 
 
----------------------------------------------------------| 
----------------------------------------------------------| 
--x-x-9-7-x-x-9-7-x-9-7-x-9-7-x-x-x-x-9-7-x-x-9-7-x-9-7-x-| 
--x-x-9-7-x-x-9-7-x-9-7-x-9-7-x-x-x-x-9-7-x-x-9-7-x-9-7-x-| 
----------------------------------------------------------| 
----------------------------------------------------------| 
 
 
------------------------------------------------------------------------------| 
------------------------------------------------------------------------------| 
--x-x-12-10-x-x-12-10-x-12-10-x-12-10-x-x-x-x-12-10-x-x-12-10-x-12-10-x-7--9--| 
--x-x-12-10-x-x-12-10-x-12-10-x-12-10-x-x-x-x-12-10-x-x-12-10-x-12-10-x-7--9--| 
------------------------------------------------------------------------5--7--| 
------------------------------------------------------------------------------| 
 
 
---------------------|--------------------------|-------------------| 
---------------------|--------------------------|-------------------| 
--10--------9--------|--7------5--------3-------|--2----------------| 
--10--------9--------|--7------5--------3---6---|--2----------------| 
--8---------7--------|--5------3--------1---6---|--0----------------| 
---------------------|----------------------4---|-------------------| 
 
 
-------------------|-------------------|-------------------|-------------------| 
-------------------|-------------------|-------------------|-------------------| 
-------------------|--2----------------|-------------------|--5----------------| 
--3----------------|--2----------------|--3----------------|--5----------------| 
--3----------------|--0----------------|--3----------------|--3----------------| 
--1----------------|-------------------|--1----------------|-------------------| 
 
 
-------------------|-------------------|-------------------|-------------------| 
-------------------|-------------------|-------------------|-------------------| 
-------------------|--5----------------|-------------------|--6----------------| 
--6----------------|--5----------------|--6----------------|--6----------------| 
--6----------------|--3----------------|--6----------------|--4----------------| 
--4----------------|-------------------|--4----------------|-------------------| 
 
 
-------------------|-------------------|-------------------|-------------------| 
-------------------|-------------------|-------------------|-------------------| 
-------------------|--6----------------|-------------------|--9----------------| 
--7----------------|--6----------------|--7----------------|--9----------------| 
--7----------------|--4----------------|--7----------------|--7----------------| 
--5----------------|-------------------|--5----------------|-------------------| 
 
 
--------------------|-------------------|--------------------| 
--------------------|-------------------|--------------------| 
--------------------|--9----------------|--------------------| 
--10----------------|--9----------------|--10----------------| 
--10----------------|--7----------------|--10----------------| 
--8-----------------|-------------------|--8-----------------| 
 
 
-----------------------|-----------------------|-----------------------| 
--3--------------------|--3--------------------|--3--------------------| 
--2--------------------|--5--------------------|--2--------------------| 
--0--------------------|--5--------------------|--0--------------------| 
--0--------------------|--3--------------------|--0--------------------| 
-----------------------|--3--------------------|-----------------------| 
 
 
-----------------------|--------------------------------------| 
--3--------------------|--------------------------------------| 
--5--------------------|------14------15--------14------15----| 
--5--------------------|--12------12--------12------12--------| 
--3--------------------|--------------------------------------| 
--3--------------------|--------------------------------------| 
 
 
--------------------------------------|--------------------------------------| 
--------------------------------------|--------------------------------------| 
------15------14--------15------14----|------14------15--------14------15----| 
--------------------------------------|--12------12--------12------12--------| 
--15------15--------15------15--------|--------------------------------------| 
--------------------------------------|--------------------------------------| 
 
 
--------------------------------------|--------------------------------| 
--------------------------------------|--------------------------------| 
------15------14--------15------14----|--------------------------------| 
--------------------------------------|-----7-----8--------7-----8-----| 
--15------15--------15------15--------|--5--5--5--5--5--5--5--5--5--5--| 
--------------------------------------|--------------------------------| 
 
 
--------------------------------|--------------------------------| 
--------------------------------|--------------------------------| 
--------------------------------|--------------------------------| 
-----8-----7--------8-----7-----|-----7-----8--------7-----8-----| 
--3--3--3--3--3--3--3--3--3--3--|--5--5--5--5--5--5--5--5--5--5--| 
--------------------------------|--------------------------------| 
 
 
--------------------------------|------------------------------------| 
--------------------------------|------------------------------------| 
--------------------------------|------------------------------------| 
-----8-----7--------8-----7-----|------------------------------------| 
--3--3--3--3--3--3--3--3--3--3--|-----12-----10--------12-----10-----| 
--------------------------------|--6--6---6--6---6--6--6---6--6---6--| 
 
 
----------------------------------|--------------------------------| 
----------------------------------|--------------------------------| 
----------------------------------|--------------------------------| 
----------------------------------|--------------------2-----------| 
-----10-----8--------10-----8-----|-----8-----7--------------5-----| 
--5--5---5--5--5--5--5---5--5--5--|--3--3--3--3--3--1--1--1--1--1--| 
 
 
-------------------------------|--------------------------------------| 
-------------------------------|--------------------------------------| 
--------------------2-----2----|--------------------------------------| 
--------------------2-----2----|-----8--7--8--7-----8-----7--8--7-----| 
-----5-----4-----0--0--0--0----|--5--------------5-----5-----------5--| 
--0--0--0--0--0----------------|--------------------------------------| 
 
 
--------------------------------|--------------------------------------| 
--------------------------------|--------------------------------------| 
--------------------------------|--------------------------------------| 
-----8--7--8--7-----8-----7--8--|-----8--7--8--7-----8-----7--8--7-----| 
--------------------------------|--5--------------5-----5-----------5--| 
--8--------------8-----8--------|--------------------------------------| 
 
 
--------------------------------|--------------------------------------| 
--------------------------------|--------------------------------------| 
--------------------------------|--------------------------------------| 
-----8--7--8--7-----8-----7--8--|--------------------------------------| 
--------------------------------|-----8--7--8--7--------8--7--8--7-----| 
--8--------------8-----8--------|--5--------------5--6--------------6--| 
 
 
--------------------------------|--------------------------------------| 
--------------------------------|--------------------------------------| 
--------------------------------|--------------------------------------| 
--------------------------------|--------------------------------------| 
-----8--7--8--7-----8-----7--8--|-----8--7--8--7--------8--7--8--7-----| 
--8--------------3-----3--------|--5--------------5--6--------------6--| 
 
 
--------------------------------|--------------------------------------| 
--------------------------------|--------------------------------------| 
--------------------------------|--------------------------------------| 
-----3--2--3--2-----3-----2--3--|--------------------------------------| 
--------------------------------|-----8--7--8--7--------8--7--8--7-----| 
--1--------------0-----0--------|--5--------------0--5--------------0--| 
 
 
-------------------------------------|----------------------------------------| 
-------------------------------------|----------------------------------------| 
-------------------------------------|----------------------------------------| 
-----8--7--8--7--------8--7--8--7----|-----8--7--8--7--------10--8--10--8-----| 
-------------------------------------|--5--------------5--7----------------7--| 
--5--------------0--5----------------|----------------------------------------| 
 
 
------------------------------------------| 
------------------------------------------| 
------------------------------------------| 
---------------------------8--7--8--7-----| 
-----12--10--12--10-----8--------------8--| 
--8------------------8--------------------| 
 
 
--------------------------------------|--------------------------------------| 
--------------------------------------|--------------------------------------| 
--------------------------------------|--------------------------------------| 
-----7--5--7--5--------7--5--7--5-----|-----8--7--8--7--------8--7--8--7-----| 
--------------------------------------|--------------------4--------------4--| 
--6--------------6--0--------------0--|--5--------------0--------------------| 
 
 
----------------------------------------| 
----------------------------------------| 
----------------------------------------| 
-----8--7--8--7--------10--8--10--8-----| 
--5--------------5--7----------------7--| 
----------------------------------------| 
 
 
------------------------------------------| 
------------------------------------------| 
------------------------------------------| 
---------------------------8--7--8--7-----| 
-----12--10--12--10-----8--------------8--| 
--8------------------8--------------------| 
 
 
--------------------------------------|--------------------------------------| 
--------------------------------------|--------------------------------------| 
--------------------------------------|--------------------------------------| 
-----7--5--7--5--------7--5--7--5-----|--------------------------------------| 
--------------------------------------|-----8--7--8--7--------8--7--8--7-----| 
--6--------------6--0--------------0--|--5--------------0--5--------------0--| 
 
 
--------------------------------------|----------------------------------------| 
--------------------------------------|----------------------------------------| 
--------------------------------------|----------------------------------------| 
-----8--7--8--7--------8--7--8--7-----|-----8--7--8--7--------10--8--10--8-----| 
--------------------------------------|--5--------------5--7----------------7--| 
--5--------------0--5--------------0--|----------------------------------------| 
 
 
------------------------------------------| 
------------------------------------------| 
------------------------------------------| 
---------------------------8--7--8--7-----| 
-----12--10--12--10-----8--------------8--| 
--8------------------8--------------------| 
 
 
--------------------------------------|--------------------------------------| 
--------------------------------------|--------------------------------------| 
--------------------------------------|--------------------------------------| 
-----7--5--7--5--------7--5--7--5-----|-----8--7--8--7--------8--7--8--7-----| 
--------------------------------------|--------------------4--------------4--| 
--6--------------6--0--------------0--|--5--------------0--------------------| 
 
 
----------------------------------------| 
----------------------------------------| 
----------------------------------------| 
-----8--7--8--7--------10--8--10--8-----| 
--5--------------5--7----------------7--| 
----------------------------------------| 
 
 
------------------------------------------| 
------------------------------------------| 
------------------------------------------| 
---------------------------8--7--8--7-----| 
-----12--10--12--10-----8--------------8--| 
--8------------------8--------------------| 
 
 
--------------------------------------|--------------------------------------| 
--------------------------------------|--------------------------------------| 
--------------------------------------|--------------------------------------| 
-----7--5--7--5--------7--5--7--5-----|--------------------------------------| 
--------------------------------------|-----8--7--8--7--------8--7--8--7-----| 
--6--------------6--0--------------0--|--5--------------0--5--------------0--| 
 
 
--------------------------------------|----------------------------------------| 
--------------------------------------|----------------------------------------| 
--------------------------------------|----------------------------------------| 
-----8--7--8--7--------8--7--8--7-----|-----8--7--8--7--------10--8--10--8-----| 
--------------------------------------|--5--------------5--7----------------7--| 
--5--------------0--5--------------0--|----------------------------------------| 
 
 
------------------------------------------| 
------------------------------------------| 
------------------------------------------| 
---------------------------8--7--8--7-----| 
-----12--10--12--10-----8--------------8--| 
--8------------------8--------------------| 
 
 
--------------------------------------|--------------------------------------| 
--------------------------------------|--------------------------------------| 
--------------------------------------|--------------------------------------| 
-----7--5--7--5--------7--5--7--5-----|-----8--7--8--7--------8--7--8--7-----| 
--------------------------------------|--------------------4--------------4--| 
--6--------------6--0--------------0--|--5--------------0--------------------| 
 
Abrašos pra minha banda Setimo Selo, pra minha namorada e pra todos de araruama 
qm quiser meu msn pra ter alguma ajuda Ú: [email protected] 
vlw e abrašos!!! 
sara te amuuuu... 

		  

See also:

tabs Slipknot - Spit It Out tabs Dream Theater - Erotomania tabs Slipknot - The Nameless tabs Seether - Broken tabs Slipknot - People = Shit tabs Seether - Broken (solo ver 2)
e-chords

Other versions:

tabs Dream Theater - Stream Of Consciousness
auto scroll beats size up size down change color hide chords drawings
tab show chords e-chords YouTube Clip e-chords hide all tabs e-chords go to top tab

share