Dream Evil

Love Is Blind

Dream Evil

tabs

by  BOMBAXXX

save to print version add songbook text version e-mail correct tuner
chordsukulelecavacokeyboardtabbassdrumsharmonicaflute Guitar Pro
close

there isn't a video lesson for this song

chords

Love Is Blind

	  		
Intro 

e|--10---------10----------------| 
B|------10---------10-----10-----| 
G|7---------7----------7---------| X 24 
D|-------------------------------| 
A|-------------------------------| 
D|-------------------------------| 

Acoustic melody 

e|---------------------------------------------| 
B|---------------------------------------------| 
G|---------------------------------------------| X 5 
D|--6-5-----3-2-----3-2--------6-5-----2-3~----|  
A|6-----6-3-----3-1-----3----6-----6-3---------| 
D|---------------------------------------------| 

Chorus 

e|---------------------------------------------------------------------------------| 
B|---------------------------------------------------------------------------------| 
G|---------------------------------------------------------------------------------| 
D|0------------3------------0-0--3-3----8-8--7-0-----------------------------------| 
A|0------------3------------0-0--3-3----8-8--7-0-----------------------------------| 
D|0------------3------------0-0--3-3----8-8--7-0-----------------------------------| 

  Eat    my   heart   of   sin.                           

e|---------------------------------------------------------------------------------| 
B|---------------------------------------------------------------------------------| 
G|---------------------------------------------------------------------------------| 
D|----------3-----5-----5-3-2---0-0---3-3---8-8--7-0-------------------------------| 
A|----------3-----5-----5-3-2---0-0---3-3---8-8--7-0-------------------------------| 
D|----------3-----5-----5-3-2---0-0---3-3---8-8--7-0-------------------------------| 

  Can't you be soul to give in. 

e|---------------------------------------------------------------------------------| 
B|---------------------------------------------------------------------------------| 
G|---------------------------------------------------------------------------------| 
D|0------------3------------0-0--3-3----8-8--7-0-----------------------------------| 
A|0------------3------------0-0--3-3----8-8--7-0-----------------------------------| 
D|0------------3------------0-0--3-3----8-8--7-0-----------------------------------| 

  Leave  your  blame  and  hate                     

e|---------------------------------------------------------------------------------| 
B|---------------------------------------------------------------------------------| 
G|---------------------------------------------------------------------------------| 
D|----------3-----5-----5-3-2---0--------------------------------------------------| 
A|----------3-----5-----5-3-2---0--------------------------------------------------| 
D|----------3-----5-----5-3-2---0--------------------------------------------------| 

  Come to peace before it's too late 

Acoustic melody 

e|---------------------------------------------| 
B|---------------------------------------------| 
G|---------------------------------------------| X 4 
D|--6-5-----3-2-----3-2--------6-5-----2-3~----|  
A|6-----6-3-----3-1-----3----6-----6-3---------| 
D|---------------------------------------------| 

Chorus 

e|---------------------------------------------------------------------------------| 
B|---------------------------------------------------------------------------------| 
G|---------------------------------------------------------------------------------| 
D|0------------3------------0-0--3-3----8-8--7-0-----------------------------------| 
A|0------------3------------0-0--3-3----8-8--7-0-----------------------------------| 
D|0------------3------------0-0--3-3----8-8--7-0-----------------------------------| 

  Eat    my   heart   of   sin.                           

e|---------------------------------------------------------------------------------| 
B|---------------------------------------------------------------------------------| 
G|---------------------------------------------------------------------------------| 
D|----------3-----5-----5-3-2---0-0---3-3---8-8--7-0-------------------------------| 
A|----------3-----5-----5-3-2---0-0---3-3---8-8--7-0-------------------------------| 
D|----------3-----5-----5-3-2---0-0---3-3---8-8--7-0-------------------------------| 

  Can't you be soul to give in. 

e|---------------------------------------------------------------------------------| 
B|---------------------------------------------------------------------------------| 
G|---------------------------------------------------------------------------------| 
D|0------------3------------0-0--3-3----8-8--7-0-----------------------------------| 
A|0------------3------------0-0--3-3----8-8--7-0-----------------------------------| 
D|0------------3------------0-0--3-3----8-8--7-0-----------------------------------| 

  Leave  your  blame  and  hate                     

e|---------------------------------------------------------------------------------| 
B|---------------------------------------------------------------------------------| 
G|---------------------------------------------------------------------------------| 
D|----------3-----5-----5-3-2---0--------------------------------------------------| 
A|----------3-----5-----5-3-2---0--------------------------------------------------| 
D|----------3-----5-----5-3-2---0--------------------------------------------------| 

  Come to peace before it's too late 

Then solo which I have no idea how to tab. 

Outro 

e|--10---------10----------------| 
B|------10---------10-----10-----| 
G|7---------7----------7---------| X 12 
D|-------------------------------| 
A|-------------------------------| 
D|-------------------------------| 

************************************ 

| /   slide up 
| \   slide down 
| h   hammer-on 
| p   pull-off 
| ~   vibrato 
| +   harmonic 
| x   Mute note 
| b   Bend 
| pb  Pre-bend 
| br  Bend release 
| pbr Pre-bend release 
| brb Bend release bend 

************************************ 
		  

See also:

tabs The Unguided - Singularity tabs Hammerfall - Riders of the Storm tabs Zonaria - Descend Into Chaos tabs Hammerfall - The Dragon Lies Bleeding tabs Hammerfall - Back to back tabs The Unguided - My Own Death
e-chords

Other versions:

tabs Dream Evil - Love Is Blind
auto scroll beats size up size down change color hide chords drawings
tab show chords e-chords YouTube Clip e-chords hide all tabs e-chords go to top tab

share