Dragonforce

Trail Of Broken Hearts

Dragonforce

tabs

by  ADALGOMES

save to print version add songbook text version e-mail correct tuner
chordsukulelecavacokeyboardtabbassdrumsharmonicaflute Guitar Pro
close

there isn't a video lesson for this song

chords

Trail Of Broken Hearts

	  		
E|--0---0---0---0---0---0---0---0---0---0---0---0---0---0---0---0--| 
B|--2---2---2---2---2---2---2---2---0---0---0---0---0---0---0---0--| 
G|--2---2---2---2---2---2---2---2---1---1---1---1---1---1---1---1--| 
D|--2---2---2---2---2---2---2---2---2---2---2---2---2---2---2---2--| 
A|--0---0---0---0---0---0---0---0---2---2---2---2---2---2---2---2--| 
D|-----------------------------------------------------------------| 
 
 
                                                        end Riff A 
E|--2---2---2---2---2---2---2---2---0---0---0---0---0---0---0---0--| 
B|--2---2---2---2---2---2---2---2---0---0---0---0---0---0---0---0--| 
G|--2---2---2---2---2---2---2---2---1---1---1---1---1---1---1---1--| 
D|--4---4---4---4---4---4---4---4---2---2---2---2---2---2---2---2--| 
A|--4---4---4---4---4---4---4---4---2---2---2---2---2---2---2---2--| 
D|--4---4---4---4---4---4---4---4----------------------------------|x2 
 
 
E|--2---2---2---2---2---2---2---2---2---2---2---2---2---2---2---2--| 
B|--3---3---3---3---3---3---3---3---2---2---2---2---2---2---2---2--| 
G|--2---2---2---2---2---2---2---2---2---2---2---2---2---2---2---2--| 
D|--0---0---0---0---0---0---0---0---4---4---4---4---4---4---4---4--| 
A|----------------------------------4---4---4---4---4---4---4---4--| 
D|----------------------------------4---4---4---4---4---4---4---4--| 
 
 
E|--2---2---2---2---2---2---2---2---2---2---2---2---0---0---0---0---0~~--| 
B|--3---3---3---3---3---3---3---3---2---2---2---2---0---0---0---0---0~~--| 
G|--2---2---2---2---2---2---2---2---2---2---2---2---1---1---1---1---1~~--| 
D|--0---0---0---0---0---0---0---0---4---4---4---4---2---2---2---2---2~~--| 
A|----------------------------------4---4---4---4---2---2---2---2---2~~--| 
D|----------------------------------4---4---4---4------------------------| 
 
verse 1 
Guitar 3 w/Riff A 

Guitar 1 Dist. 
E|----------------------------------------------------------------------------| 
B|----------------------------------------------------------------------------| 
G|---------------------9--------9---9--11-9-----------9---------9-----11p9----| 
D|--7--------7---------9----9---9---9-------11--9--11-------------11----------| 
A|--7---7-7--7----7-7--7----7---7---7--------------------12--12---------------| 
D|--7---7-7--7----7-7---------------------------------------------------------| 
       pm-       pm-       pm         pm-------------------------------------| 
E|----------------------------------------------------------------------------| 
B|----------------------------------------------------------------------------| 
G|-----13p9-------------9---------9---------9----9s11--9----------------------| 
D|--11------11-12-11-12---12-11---9----9-9--9----9s11----11-9-11---7-------7--| 
A|--------------------------------7----7-7--7----7s-9--------------7---7---7--| 
D|-----------------------------------------------------------------7---7---7--| 
   pm      pm------------------       pm-               pm-------------------|      pm 
E|----------------------------------------------------------------------------| 
B|---------------------------------------------------12--9---10p9---9---------| 
G|----------9-----14--9h14p9-----9---9----------9----------9------9-----------| 
D|--(7)--11---11-------------11------9----9-9---9-----------------------------| 
A|--(7)------------------------------7----7-7---7-----------------------9-9---| 
D|--(7)-----------------------------------------------------------------------| 
                                         pm-              pm     pm    pm- 

 
E|----------------------------------------------------------------------------| 
B|--10---10p9--10---x---9h10---10s12--10~~~-10s13--9---10-9---12-9---12-9-----| 
G|--11---11p9--11---x---9h11-------------------------9------9------9------9---| 
D|----------------------------------------------------------------------------| 
A|----------------------------------------------------------------------------| 
D|----------------------------------------------------------------------------| 
 
                                      ph            pm------      pm---------|     pm 

 
E|-------------------| 
B|--12---12s14-9~~~--| 
G|-----9-------------| 
D|-------------------| 
A|-------------------| 
D|-------------------| 
 
      pm 

Pre Chorus 
Guitar 3 Tacet 

Guitar 1 and 2 (Dist.) 
 
E|--------------------------------------------------------------------------| 
B|--------------------------------------------------------------------------| 
G|--7---7----------------------------------------2---2------------------7---| 
D|--7---7---7-7---7---7------4---4----4--2---2---2---2---2-2---4---4----7---| 
A|--5---5---5-5---7---7------4---4----4--2---2---0---0---0-0---4---4----5---| 
D|----------------7---7------4---4----4--2---2-----------------4---4--------| 
 
           pm-                                          pm- 

 
E|-----------------------| 
B|-----------------------| 
G|--7---7---7----9----7--| 
D|--7---7---7----9----7--| 
A|--5---5---5----7----5--| 
D|-----------------------| 
 

Chorus 
Guitar 1 
E|---------------------------------------------------------------------------| 
B|---------------------------------------------------------------------------| 
G|--2-------------------------------7-------------------------------2--------| 
D|--2---------------2---------------7---------------2---------------2--------| 
A|--0---------------2---------------5---------------2-------2---2---0--------| 
D|------------------2-------------------------------2-------2---2------------| 
Guitar 3                                                   pm--- 
E|--0---0---0---0---0---0---0---0---2---2---2---2---0---0---0---0---0---0---| 
B|--2---2---2---2---0---0---0---0---3---3---3---3---0---0---0---0---2---2---| 
G|--2---2---2---2---1---1---1---1---2---2---2---2---1---1---1---1---2---2---| 
D|--2---2---2---2---2---2---2---2---0---0---0---0---2---2---2---2---2---2---| 
A|--0---0---0---0---2---2---2---2-------------------2---2---2---2---0---0---| 
D|--------------------------------------------------------------------------| 
Guitar 1 cont. 
 
E|---------------------------------------------------------------------------| 
B|---------------------------------------------------------------------------| 
G|-(2)----------------------4-------------------------------2----------------| 
D|-(2)------2---------------4---------------2---------------2----------------| 
A|-(0)------2---------------2---------------2---------------0----------------| 
D|----------2-------------------------------2--------------------------------| 
 
Guitar 3 cont. 
 
E|--0---0---0---0---0---0---2---2---2---2---0---0---0---0---0---0---0---0---| 
B|--2---2---0---0---0---0---3---3---3---3---0---0---0---0---2---2---2---2---| 
G|--2---2---1---1---1---1---4---4---4---4---1---1---1---1---2---2---2---2---| 
D|--2---2---2---2---2---2---4---4---4---4---2---2---2---2---2---2---2---2---| 
A|--0---0---2---2---2---2---2---2---2---2---2---2---2---2---0---0---0---0---| 
D|--------------------------------------------------------------------------| 
 
Guitar 1 cont. 
 
E|---------------------------------------------------------------------------| 
B|---------------------------------------------------------------------------| 
G|--7-----------------------------------------------7------------------------| 
D|--7---------------2---------------4---------------7---------------2--------| 
A|--5---------------2---------------4---------------5---------------2--------| 
D|------------------2---------------4-------------------------------2--------| 
 
Guitar 3 cont. 
 
E|--2---2---2---2---0---0---0---0---2---2---2---2---2---2---2---2---0---0---| 
B|--3---3---3---3---0---0---0---0---2---2---2---2---3---3---3---3---0---0---| 
G|--2---2---2---2---1---1---1---1---2---2---2---2---2---2---2---2---1---1---| 
D|--0---0---0---0---2---2---2---2---4---4---4---4---0---0---0---0---2---2---| 
A|------------------2---2---2---2---4---4---4---4-------------------2---2---| 
D|----------------------------------4---4---4---4---------------------------| 
 
Guitar 1 and 2 cont. 
 
E|-------------------| 
B|-------------------| 
G|----------2~~~-----| 
D|-(2)------2~~~-----| 
A|-(2)------0~~~-----| 
D|-(2)---------------| 
 
Guitar 3 cont. 
 
E|--0---0---0~~~-----| 
B|--0---0---2~~~-----| 
G|--1---1---2~~~-----| 
D|--2---2---2~~~-----| 
A|--2---2---0~~~-----| 
D|-------------------| 
 

verse 2 
Guitar 3 Riff A 
Guitar 1 
 
E|---------------------------------------------------------------------------| 
B|-----------------------------------9-9-9s10-10-10s12-12-12s9------10--10p9-| 
G|-----------------------9-------9---9-9-9s11-11-11s13-13-13s9--x-x-11--11p9-| 
D|--7---------7----------9---9---9------------------------------x-x----------| 
A|--7---7-7---7----7-7---7---7---7-------------------------------------------| 
D|--7---7-7---7----7-7-------------------------------------------------------| 
 
       pm-        pm-       pm 

 
E|--------------------------------------------------------------------------| 
B|----9---------------------------------12----15-------12-15----------------| 
G|--9----9s6---6-7-7s9--9---------9--13----13----13-------------------------| 
D|-----------7----------9---9-9---9----------------------------7--------7---| 
A|----------------------7---7-7---7----------------------------7---7----7---| 
D|-------------------------------------------------------------7---7----7---| 
 
            pm    ph       pm-                                    pm 

 
E|---------------------------------------------------------------------------| 
B|---------------------------------------------------------------------------| 
G|--6s9--9-6---------9---------9------9------------------11---11h9----11-----| 
D|-----------7-6-----9---9-9---9------9---7h9--7-9-------11---11h9-11-11-----| 
A|-------------------7---7-7---7--7---7---7----7-7--9-9-----9-------------9--| 
D|---------------------------------------------------------------------------| 
 
   ph   pm-----         pm-      pm                pm-     pm---------------|            pm 

 
E|-----------------------------------------------------------| 
B|--9h10---10-------------9---12---9---14p12-9-12-9---9s12---| 
G|--9h11------11------9-9---9----9---9--------------9--------| 
D|---------------11~~----------------------------------------| 
A|-------9---------------------------------------------------| 
D|-----------------------------------------------------------| 
 
        pm                                           ph- 

Pre Chorus again 

Chorus 
Guitar 1 
E|---------------------------------------------------------------------------| 
B|---------------------------------------------------------------------------| 
G|--2-------------------------------7-------------------------------2--------| 
D|--2---------------2---------------7---------------2---------------2--------| 
A|--0---------------2---------------5---------------2-------2---2---0--------| 
D|------------------2-------------------------------2-------2---2------------| 
Guitar 3                                                   pm--- 
E|--0---0---0---0---0---0---0---0---2---2---2---2---0---0---0---0---0---0----| 
B|--2---2---2---2---0---0---0---0---3---3---3---3---0---0---0---0---2---2----| 
G|--2---2---2---2---1---1---1---1---2---2---2---2---1---1---1---1---2---2----| 
D|--2---2---2---2---2---2---2---2---0---0---0---0---2---2---2---2---2---2----| 
A|--0---0---0---0---2---2---2---2-------------------2---2---2---2---0---0----| 
D|---------------------------------------------------------------------------| 
Guitar 1 cont. 
 
E|---------------------------------------------------------------------------| 
B|---------------------------------------------------------------------------| 
G|-(2)----------------------4-------------------------------2----------------| 
D|-(2)------2---------------4---------------2---------------2----------------| 
A|-(0)------2---------------2---------------2---------------0----------------| 
D|----------2-------------------------------2--------------------------------| 
 
Guitar 3 cont. 
 
E|--0---0---0---0---0---0---2---2---2---2---0---0---0---0---0---0---0---0----| 
B|--2---2---0---0---0---0---3---3---3---3---0---0---0---0---2---2---2---2----| 
G|--2---2---1---1---1---1---4---4---4---4---1---1---1---1---2---2---2---2----| 
D|--2---2---2---2---2---2---4---4---4---4---2---2---2---2---2---2---2---2----| 
A|--0---0---2---2---2---2---2---2---2---2---2---2---2---2---0---0---0---0----| 
D|---------------------------------------------------------------------------| 
 
Guitar 1 cont. 
 
E|---------------------------------------------------------------------------| 
B|---------------------------------------------------------------------------| 
G|--7-----------------------------------------------7------------------------| 
D|--7---------------2---------------4---------------7---------------2--------| 
A|--5---------------2---------------4---------------5---------------2--------| 
D|------------------2---------------4-------------------------------2--------| 
 
Guitar 3 cont. 
 
E|--2---2---2---2---0---0---0---0---2---2---2---2---2---2---2---2---0---0----| 
B|--3---3---3---3---0---0---0---0---2---2---2---2---3---3---3---3---0---0----| 
G|--2---2---2---2---1---1---1---1---2---2---2---2---2---2---2---2---1---1----| 
D|--0---0---0---0---2---2---2---2---4---4---4---4---0---0---0---0---2---2----| 
A|------------------2---2---2---2---4---4---4---4-------------------2---2----| 
D|----------------------------------4---4---4---4----------------------------| 
 
Guitar 1 cont. 
E|---------------------------------------------------------------------------| 
B|---------------------------------------------------------------------------| 
G|----------2-------------------------------7--------------------------------| 
D|-(2)------2---------------4---------------7-----------------------7---7----| 
A|-(2)------0---------------4---------------5-----------------------5---5----| 
D|-(2)----------------------4------------------------------------------------| 
Guitar 3 cont.                                                     pm--- 
E|--0---0---0---0---0---0---2---2---2---2---2---2---2---2---2---2---2---2----| 
B|--0---0---2---2---2---2---2---2---2---2---3---3---3---3---3---3---3---3----| 
G|--1---1---2---2---2---2---2---2---2---2---2---2---2---2---2---2---2---2----| 
D|--2---2---2---2---2---2---4---4---4---4---0---0---0---0---0---0---0---0----| 
A|--2---2---0---0---0---0---4---4---4---4------------------------------------| 
D|--------------------------4---4---4---4------------------------------------| 
Guitar 1 cont. 
 
E|------------------------------------| 
B|------------------------------------| 
G|------------------------------------| 
D|--2--------------------------(2)~~--| 
A|--2--------------------------(2)~~--| 
D|--2--------------------------(2)~~--| 
 
Guitar 3 cont. 
 
E|--0---0---0---0---0---0---0---0~~~--| 
B|--0---0---0---0---0---0---0---0~~~--| 
G|--1---1---1---1---1---1---1---1~~~--| 
D|--2---2---2---2---2---2---2---2~~~--| 
A|--2---2---2---2---2---2---2---2~~~--| 
D|------------------------------------| 
 

Bridge 
Guitar 1 
E|---------------------------------------------------------------------------| 
B|---------------------------------------------------------------------------| 
G|---6--------------7---------------8---------------9---------------10-------| 
D|---6----------6---7---------------9-----------9---9---------------11-11-11-| 
A|---4----------4---5---------------6-----------6---7---------------8--8--8--| 
D|---------------------------------------------------------------------------| 
Guitar 3       pm                              pm                     pm--- 
E|------------------2---2---2---2---2---2---2---2---0---0---0---0---4---4----| 
B|--6---6---6---6---3---3---3---3---0---0---0---0---0---0---0---0---0---0----| 
G|--6---6---6---6---2---2---2---2---2---2---2---2---1---1---1---1---4---4----| 
D|--6---6---6---6---0---0---0---0---1---1---1---1---2---2---2---2---3---3----| 
A|--4---4---4---4-------------------2---2---2---2---2---2---2---2---4---4----| 
D|---------------------------------------------------------------------------| 
Guitar 1 
E|-------------------------------------------------------------| 
B|-------------------------------------------------------------| 
G|----------11------9------7------4----------------------------| 
D|--11-11-1111------9------7------4-444-----------2------------| 
A|--8--8--8-9-------7------5------2-222--4-4-4----2------------| 
D|-pm```````-----------------------------4-4-4----2------------| 
Guitar 3                           pm- 
E|--4---4---2~~-----0~~----2~~----2~~----2-2-2----0---0-|-0----| 
B|--0---0---2~~-----0~~----3~~----3~~----2-2-2----0---0-|-2----| 
G|--4---4---2~~-----1~~----2~~----4~~----2-2-2----1---1-|-2----| 
D|--3---3---4~~-----2~~----0~~----4~~----4-4-4----2---2-|-2----| 
A|--4---4---4~~-----2~~-----------2~~----4-4-4----2---2-|-0----| 
D|----------4~~--------------------------4-4-4----------|------| 

Solo 
Guitar 3 w/ Riff A (2 times) 
Guitar 1 
 
E|--5s9-9p7--5----------5s9~---12--9h12h9------------------------------------| 
B|--------------5-5-7-5--------------------12--10--12--12s14-12--------------| 
G|----------------------------------------------------------------9----| 
D|---------------------------------------------------------------------------| 
A|---------------------------------------------------------------------------| 
D|---------------------------------------------------------------------------| 
 
                       ph                                              w/Bar 
E|-----------------------------------------------17t14-17t14-17t14-21t17----| 
B|-----------------------------17t14-17t14-17t14----------------------------| 
G|-----14t11-14t11-14t11----------------------------------------------| 
D|--------------------------------------------------------------------------| 
A|--------------------------------------------------------------------------| 
D|--------------------------------------------------------------------------| 
   w/bar-- 
E|--21t17-21t17-17t14-17t14-17t14------------------------------17-21-21h24--| 
B|--------------------------------19t14-19t14-19t14---17-14-17--------------| 
G|--------------------------------------------------------------------------| 
D|--------------------------------------------------------------------------| 
A|--------------------------------------------------------------------------| 
D|--------------------------------------------------------------------------| 

 
E|--21-19h21p19~~~------------21s17-17-17s12-12-9s12--21t17-21t17-21t17-----| 
B|------------------17-19-17------------------------------------------------| 
G|--------------------------------------------------------------------------| 
D|--------------------------------------------------------------------------| 
A|--------------------------------------------------------------------------| 
D|--------------------------------------------------------------------------| 
 
 
E|--21t17-21t17-21t17-24t17-24t17-24t17-21t17-21t17-21t17--17s21-19-19-17-19-| 
B|---------------------------------------------------------------------------| 
G|---------------------------------------------------------------------------| 
D|---------------------------------------------------------------------------| 
A|---------------------------------------------------------------------------| 
D|---------------------------------------------------------------------------| 
 
 
E|--19s21-19~~~--17-19-17-21s24--24-21s17--17s19s17s19s17----17--------------| 
B|--------------------------------------------------------19------faster-----| 
G|----------------------------------------------------------------14-13------| 
D|----------------------------------------------------------------------16---| 
A|---------------------------------------------------------------------------| 
D|---------------------------------------------------------------------------| 
 
 
E|---------------------------------------------------------------------------| 
B|-----------------14h17p14----------14-17s19-19-17--------------------------| 
G|--------13-14-16----------16-14-16----------------18----16-18-16----18-16--| 
D|--14-16----------------------------------------------19----------19--------| 
A|---------------------------------------------------------------------------| 
D|---------------------------------------------------------------------------| 
 
 
E|-----------------16-17~~---------------------------------------------------| 
B|-----17-19-17-19---------normal----------------------14-15~~~-------14-----| 
G|--18----------------------11-11-11-11-11-13-14----------------11s14----14--| 
D|-----------------------------------------------14~~~-----------------------| 
A|---------------------------------------------------------------------------| 
D|---------------------------------------------------------------------------| 
 
Guitar 3 
 
E|---------------------------2--2----2---2----2------0--0--0--0---0----0--0--| 
B|---------------------------3--3----3---3----3------2--2--2--2---2----0--0--| 
G|---------------------------2--2----2---2----2------2--2--2--2---2----1--1--| 
D|---------------------------0--0----0---0----0------2--2--2--2---2----2--2--| 
A|---------------------------------------------------0--0--0--0---0----2--2--| 
D|---------------------------------------------------------------------------| 
 
 
E|-----------------------------------------------------------------------12--| 
B|--15----17-15-14-15-------------------------------------------------12-----| 
G|-----14-------------14-16p14--16b17b16p14-----14~~~---------9s11-14--------| 
D|------------------------------------------16--------------11---------------| 
A|-----------------------------------------------------9h12------------------| 
D|---------------------------------------------------------------------------| 
 
Guitar 3 cont. 
 
E|--0--0-----0------0-2----2-----2----2------2-----2---2------2-----2-----2--| 
B|--0--0-----0------0-2----2-----2----2------2-----2---3------3-----3-----3--| 
G|--1--1-----1------1-2----2-----2----2------2-----2---2------2-----2-----2--| 
D|--2--2-----2------2-4----4-----4----4------4-----4---0------0-----0-----0--| 
A|--2--2-----2------2-4----4-----4----4------4-----4-------------------------| 
D|--------------------4----4-----4----4------4-----4-------------------------| 
 
 
E|--14s17---16h17h16h17h14--17t14h12-17t14h12-17t12-17t9-----------------14--| 
B|--------------------------------------------------------14---15---17-------| 
G|---------------------------------------------------------------------------| 
D|---------------------------------------------------------------------------| 
A|---------------------------------------------------------------------------| 
D|---------------------------------------------------------------------------| 
 
Guitar 2 
 
E|---------------------------------------------------------------------------| 
B|---------------------------------------------------------------------------| 
G|---------------------------------------------------------11----------------| 
D|---------------------------------------------------------11-11-11-11-11-11-| 
A|---------------------------------------------------------9--9--9--9--9--9--| 
D|---------------------------------------------------------------------------| 
                                                             pm-------------| 
 
Guitar 3 cont. 
 
E|--2----2-----2----0-----0-----0------0-------0-------0---2-----2------2----| 
B|--3----3-----3----2-----2-----2------2-------2-------2---2-----2------2----| 
G|--2----2-----2----2-----2-----2------2-------2-------2---2-----2------2----| 
D|--0----0-----0----2-----2-----2------2-------2-------2---4-----4------4----| 
A|------------------0-----0-----0------0-------0-------0---4-----4------4----| 
D|---------------------------------------------------------4-----4------4----| 
 
 
E|--16---17---19b21b19-------------------------------------12h14-16-16b17b17-| 
B|----------------------17~~~--15b17--15b17~~~-14p12-------------------------| 
G|---------------------------------------------------14~~~-------------------| 
D|---------------------------------------------------------------------------| 
A|---------------------------------------------------------------------------| 
D|---------------------------------------------------------------------------| 
 
Guitar 2 cont. 
 
E|----------------------------------------------------------------------------| 
B|----------------------------------------------------------------------------| 
G|-------------9----------------7---------------------------------------------| 
D|--11-11-11---9-9-9-9-9-9-9-9--7---------------------7--------------2--------| 
A|--9--9--9----7-7-7-7-7-7-7-7--5---------------------7--------------2--------| 
D|----------------------------------------------------7--------------2--------| 
 
   pm-----      pm-----------------------------------------------------------| 
Guitar 3 cont. 
 
E|--2----2-----0---0---0----0---2--2----2----2----2---0--0---0---0---0----0--| 
B|--2----2-----0---0---0----0---3--3----3----3----3---2--2---2---2---0----0--| 
G|--2----2-----1---1---1----1---2--2----2----2----2---2--2---2---2---1----1--| 
D|--2----4-----2---2---2----2---0--0----0----0----0---2--2---2---2---2----2--| 
A|--4----4-----2---2---2----2-------------------------0--0---0---0---2----2--| 
D|--4----4-------------------------------------------------------------------| 
 
 
E|--(17)b16-14p12------------------------------------------17----19b21b21b19-| 
B|----------------14--17b19b17-14-15~~~--15-14-------17-------17-------------| 
G|---------------------------------------------16-14----18-------------------| 
D|---------------------------------------------------------------------------| 
A|---------------------------------------------------------------------------| 
D|---------------------------------------------------------------------------| 
 
Guitar 2 cont. 
 
E|---------------------------------------------------------------------------| 
B|---------------------------------------------------------------------------| 
G|---------------------------------4-----------------------------------------| 
D|-(7)---------4-------------------4------------------4----------------2-----| 
A|-(7)---------4-------------------2------------------4----------------2-----| 
D|-(7)---------4--------------------------------------4----------------2-----| 
 

Guitar 3 cont. 
 
E|--0----0-----0---2--2----2---2---2---2-----2----2---0--0---0----0----2--2--| 
B|--0----0-----0---2--2----2---2---3---3-----3----3---2--2---2----2----2--2--| 
G|--1----1-----1---2--2----2---2---4---4-----4----4---2--2---2----2----2--2--| 
D|--2----2-----2---4--4----4---4---4---4-----4----4---2--2---2----2----4--4--| 
A|--2----2-----2---4--4----4---4---2---2-----2----2---0--0---0----0----4--4--| 
D|-----------------4--4----4---4---------------------------------------4--4--| 
 
 
E|--~~~--19p17p16----16--------------16--------------------------------------| 
B|----------------19----19--19p17p16------------------------12-12s14---------| 
G|---------------------------------------11s13-13-11-13-14-------------------| 
D|-------------------------------------------------------------------16~~~---| 
A|---------------------------------------------------------------------------| 
D|---------------------------------------------------------------------------| 
 
Guitar 2 cont. 
 
E|---------------------------------------------------------------------------| 
B|---------------------------------------------------------------------------| 
G|----------------------------------------6--------------7-------------------| 
D|-(2)------------------------------------6----------6---7-------------------| 
A|-(2)------------------------------------4----------4---5-------------------| 
D|-(2)-----------------------------------------------------------------------| 
 
                                                    pm 
Guitar 3 cont. 
 
E|--2-2--0-----0------0-----0-----0---0------------------2----2----2----2----| 
B|--2-2--0-----0------0-----0-----0---0---6---6--6---6---3----3----3----3----| 
G|--2-2--1-----1------1-----1-----1---1---6---6--6---6---2----2----2----2----| 
D|--4-4--2-----2------2-----2-----2---2---6---6--6---6---0----0----0----0----| 
A|--4-4--2-----2------2-----2-----2---2---4---4--4---4-----------------------| 
D|--4-4----------------------------------------------------------------------| 
 
 
E|-------------------------------------------14s17-17--17-16-17-16-----------| 
B|--12s15--15-14-15-17-17s19-17-15--14----14-----------------------17-17s21--| 
G|------------------------------------16-------------------------------------| 
D|---------------------------------------------------------------------------| 
A|---------------------------------------------------------------------------| 
D|---------------------------------------------------------------------------| 
 
Guitar 2 cont. 
 
E|----------------------------------------------------------------------------| 
B|----------------------------------------------------------------------------| 
G|--8------------------9------------------------------------------------------| 
D|--9---------------9--9----------------------4------------------------4------| 
A|--6---------------6--7----------------------4--4--4--4--4--4--4------4------| 
D|--------------------------------------------4--4--4--4--4--4--4------4------| 
                   pm                           pm---------------------------| 
 
Guitar 3 cont. 
 
E|--2---2----2------2---0------0-----0-----0--4------4-------4-----4---2-----| 
B|--0---0----0------0---0------0-----0-----0--0------0-------0-----0---2-----| 
G|--2---2----2------2---1------1-----1-----1--4------4-------4-----4---2-----| 
D|--1---1----1------1---2------2-----2-----2--3------3-------3-----3---4-----| 
A|--2---2----2------2---2------2-----2-----2--4------4-------4-----4---4-----| 
D|---------------------------------------------------------------------4-----| 
 
 
E|----------------------------------19-21-22-24-22h24-22~~~-21-21~~~---| 
B|--21s17--15-17-17s14--19h22h19-22------------------------------------| 
G|---------------------------------------------------------------------| 
D|---------------------------------------------------------------------| 
A|---------------------------------------------------------------------| 
D|---------------------------------------------------------------------| 
 
Guitar 2 cont. 
 
E|---------------------------------------------------------------------------| 
B|---------------------------------------------------------------------------| 
G|---------7-------------4---------------------------------------------------| 
D|---------7-------------4--------------4--------------2~~-------------------| 
A|--2-2----5-------------2--------------4-------4------2~~-------------------| 
D|--2-2---------------------------------4-------4------2~~-------------------| 
 
     pm                                        pm 
Guitar 3 cont. 
 
E|--0-0----2~~-----------2~~------------2~~------------0~~----0~~------| 
B|--0-0----3~~-----------3~~------------2~~------------0~~----0~~------| 
G|--1-1----2~~-----------4~~------------2~~------------1~~----1~~------| 
D|--2-2----0~~-----------4~~------------4~~------------2~~----2~~------| 
A|--2-2------------------2~~------------4~~------------2~~----2~~------| 
D|--------------------------------------4~~----------------------------| 
 

Ourto Chorus 
Guitar 1 
E|---------------------------------------------------------------------------| 
B|---------------------------------------------------------------------------| 
G|--2-------------------------------7-------------------------------2--------| 
D|--2---------------2---------------7---------------2---------------2--------| 
A|--0---------------2---------------5---------------2-------2---2---0--------| 
D|------------------2-------------------------------2-------2---2------------| 
Guitar 3                                                   pm--- 
E|--0---0---0---0---0---0---0---0---2---2---2---2---0---0---0---0---0---0----| 
B|--2---2---2---2---0---0---0---0---3---3---3---3---0---0---0---0---2---2----| 
G|--2---2---2---2---1---1---1---1---2---2---2---2---1---1---1---1---2---2----| 
D|--2---2---2---2---2---2---2---2---0---0---0---0---2---2---2---2---2---2----| 
A|--0---0---0---0---2---2---2---2-------------------2---2---2---2---0---0----| 
D|---------------------------------------------------------------------------| 
Guitar 1 cont. 
 
E|---------------------------------------------------------------------------| 
B|---------------------------------------------------------------------------| 
G|-(2)----------------------4-------------------------------2----------------| 
D|-(2)------2---------------4---------------2---------------2----------------| 
A|-(0)------2---------------2---------------2---------------0----------------| 
D|----------2-------------------------------2--------------------------------| 
 
Guitar 3 cont. 
 
E|--0---0---0---0---0---0---2---2---2---2---0---0---0---0---0---0---0---0----| 
B|--2---2---0---0---0---0---3---3---3---3---0---0---0---0---2---2---2---2----| 
G|--2---2---1---1---1---1---4---4---4---4---1---1---1---1---2---2---2---2----| 
D|--2---2---2---2---2---2---4---4---4---4---2---2---2---2---2---2---2---2----| 
A|--0---0---2---2---2---2---2---2---2---2---2---2---2---2---0---0---0---0----| 
D|---------------------------------------------------------------------------| 
 
Guitar 1 cont. 
 
E|---------------------------------------------------------------------------| 
B|---------------------------------------------------------------------------| 
G|--7-----------------------------------------------7------------------------| 
D|--7---------------2---------------4---------------7---------------2--------| 
A|--5---------------2---------------4---------------5---------------2--------| 
D|------------------2---------------4-------------------------------2--------| 
 
Guitar 3 cont. 
 
E|--2---2---2---2---0---0---0---0---2---2---2---2---2---2---2---2---0---0----| 
B|--3---3---3---3---0---0---0---0---2---2---2---2---3---3---3---3---0---0----| 
G|--2---2---2---2---1---1---1---1---2---2---2---2---2---2---2---2---1---1----| 
D|--0---0---0---0---2---2---2---2---4---4---4---4---0---0---0---0---2---2----| 
A|------------------2---2---2---2---4---4---4---4-------------------2---2----| 
D|----------------------------------4---4---4---4----------------------------| 
 
Guitar 1 cont. 
 
E|---------------------------------------------------------------------------| 
B|---------------------------------------------------------------------------| 
G|----------2-------------------------------7--------------------------------| 
D|-(2)------2---------------4---------------7---------------2----------------| 
A|-(2)------0---------------4---------------5---------------2----------------| 
D|-(2)----------------------4-------------------------------2----------------| 
 
Guitar 3 cont. 
 
E|--0---0---0---0---0---0---2---2---2---2---2---2---2---2---0---0---0---0----| 
B|--0---0---2---2---2---2---2---2---2---2---3---3---3---3---0---0---0---0----| 
G|--1---1---2---2---2---2---2---2---2---2---2---2---2---2---1---1---1---1----| 
D|--2---2---2---2---2---2---4---4---4---4---0---0---0---0---2---2---2---2----| 
A|--2---2---0---0---0---0---4---4---4---4-------------------2---2---2---2----| 
D|--------------------------4---4---4---4------------------------------------| 
 
Guitar 1 cont. 
 
E|------------| 
B|------------| 
G|--2~~~------| 
D|--2~~~------| 
A|--0~~~------| 
D|------------| 
 
Guitar 3 cont. 
 
E|--0~~~------| 
B|--2~~~------| 
G|--2~~~------| 
D|--2~~~------| 
A|--0~~~------| 
D|------------| 
		  

Full key step upFull key step up
Half key step upHalf key step up
Half key step downHalf key step down
Full key step downFull key step down
hide glossary

See also:

tabs Engenheiros do Hawaii - Infinita Highway tabs B5 - Só mais uma vez tabs Rodox - Dia Quente tabs Legião Urbana - Há Tempos tabs Raul Seixas - Tente outra vez tabs Engenheiros do Hawaii - Pra ser sincero ( ver. 2)
e-chords

Other versions:

tabs Dragonforce - Trail Of Broken Hearts
auto scroll beats size up size down change color hide chords drawings
tab show chords e-chords YouTube Clip e-chords hide all tabs e-chords go to top tab

share