Dragon Ball GT

Música De Abertura

Dragon Ball GT

tabs

by  CARLLUZ

save to print version add songbook text version e-mail correct tuner
chordsukulelecavacokeyboardtabbassdrumsharmonicaflute Guitar Pro
close

there isn't a video lesson for this song

chords

Música De Abertura

	  		Seu sorriso é tão resplandecente que deixou meu coração alegre. Me dê a mão pra fugir dessa terrível escuridão 

E|-3-3-0-1-3-5-3-1-0---0-0-----0-1-0-----------1-0------------------------------------------- 
B|-------------------3-----1-3-------3-1-0---------3-1--3-5-6-5-3-1-3-3-1-0-0-1-------------- 
G|-----------------------------------------2-5----------------------------------------------- 
D|------------------------------------------------------------------------------------------- 
A|------------------------------------------------------------------------------------------- 
E|------------------------------------------------------------------------------------------- 

Desde o dia em que eu te reencontrei me lembrei daquele lindo lugar, que na minha infância era especial para mim 

E|-8--8-8-8-8-8-6-4-6-8-6--6-6-6-6-6-4-3-4-6-4--4-4-4-4-4-3-3-1--1-1-3-----1-3--------------- 
B|---------------------------------------------------------------------4-4------------------- 
G|------------------------------------------------------------------------------------------- 
D|------------------------------------------------------------------------------------------- 
A|------------------------------------------------------------------------------------------- 
E|------------------------------------------------------------------------------------------- 

Quero saber se comigo você quer vir dançar. Se me der a mão eu te levarei por um caminho cheio de sombras e de luz 

E|-3-3-6-8--8-8-8-8-8-6-4-6-8-6--6-6-8-10-10-11-6-4-3-4--4-6-4-4-3-6-15-13-13-11--11-10-11--- 
B|------------------------------------------------------------------------------------------- 
G|------------------------------------------------------------------------------------------- 
D|------------------------------------------------------------------------------------------- 
A|------------------------------------------------------------------------------------------- 
E|------------------------------------------------------------------------------------------- 

Você pode até não perceber, mas o meu coração se amarrou em você 

E|-8-10-11-10-8-11-10-8-11--8-13-11-10-8-6-6-3-6-6-3-6--------------------------------------- 
B|------------------------------------------------------------------------------------------- 
G|------------------------------------------------------------------------------------------- 
D|------------------------------------------------------------------------------------------- 
A|------------------------------------------------------------------------------------------- 
E|------------------------------------------------------------------------------------------- 


E precisa de alguém pra te mostrar o amor que o mundo te dá 

E|-6-6-8-10-10-11-8-10-10-11-8--8-15-13--13-13-11-13-15-------------------------------------- 
B|------------------------------------------------------------------------------------------- 
G|------------------------------------------------------------------------------------------- 
D|------------------------------------------------------------------------------------------- 
A|------------------------------------------------------------------------------------------- 
E|------------------------------------------------------------------------------------------- 


Meu alegre coração palpita por um universo de esperança. Me dê a mão. O futuro nos espera 

E|-3-3-0-1-3-5-3-1-0---0-0-----0-1-0-----------1-0------------------------------------------- 
B|-------------------3-----1-3-------3-1-0---------3-1--3-5-6-5-3-1-5-3---------------------- 
G|-----------------------------------------2-5----------------------------------------------- 
D|------------------------------------------------------------------------------------------- 
A|------------------------------------------------------------------------------------------- 
E|------------------------------------------------------------------------------------------- 

Vou te amar por toda a minha vida. Vem comigo por esse caminho. Me dê a mão pra fugir dessa terrível escuridão 

E|-3-3-0-1-3-5-3-1-0---0-0-----0-1-0-----------1-0------------------------------------------- 
B|-------------------3-----1-3-------3-1-0---------3-1--3-5-6-5-3-1-3-3-1-0-0-1-------------- 
G|-----------------------------------------2-5----------------------------------------------- 
D|------------------------------------------------------------------------------------------- 
A|------------------------------------------------------------------------------------------- 
E|------------------------------------------------------------------------------------------- 
		  

See also:

tabs Misc Computer Games - Undertale - Dogsong tabs Misc Computer Games - Far Cry 5 - Now That This Old World Is Ending tabs Andy James - Separation tabs Misc Television - Marvels The Punisher - Main Theme tabs Misc Computer Games - Undertale - Main Theme (acoustic) tabs Misc Television - Doctor Who - Claras Theme
e-chords

Other versions:

tabs Dragon Ball Z - Música De Abertura tabs Dragon Ball GT - Música De Abertura
auto scroll beats size up size down change color hide chords drawings
tab show chords e-chords YouTube Clip e-chords hide all tabs e-chords go to top tab

share