Dragon Ball GT

Estarei Com Você (hitori Janai) Tab

Dragon Ball GT

Difficulty: ExpertExpert

by LINEKERS

tuner correct add songbook print version text version save to e-mail
chordsukulelecavacokeyboardtabbassdrumsharmonicsflute Guitar Pro
close

there isn't a video lesson for this song

request
chords

Estarei Com Você (hitori Janai)

  		Versos


E|------------------------------------------|------------------------------|
B|------------------------------------------|------------------------------|
G|------------------------------------------|------------------------------|
D|-----------8--10--10-----------8--10--10--|-----8--10--11--11--10--8--8--|
A|--6--6--6-------------6--6--6-------------|--8---------------------------|
E|------------------------------------------|------------------------------|


    Já te conheço bem   Sei como você é        Não se importa com ninguém


E|------------------------------------------|--------------------------------------|
B|------------------------------------------|--------------------------------------|
G|------------------------------------------|--------------------------------------|
D|-----8--10--10--11--11-----8--10--11--11--|--10--8--10--8----------8--10--10--8--|
A|--8---------------------8-----------------|----------------11--11----------------|
E|------------------------------------------|--------------------------------------|


  Só faz o que bem quer   Pode até machucar    Por que você é sempre assim?



E|------------------------------------------|----------------------------------|
B|------------------------------------------|----------------------------------|
G|------------------------------------------|----------------------------------|
D|-----------8--10--10-----------8--10--10--|-----8--10--11--11--10--8--8--10--|
A|--6--6--6-------------6--6--6-------------|--8-------------------------------|
E|------------------------------------------|----------------------------------|


    E essa ilusão       Que quer alimentar     É um passado que se foi



E|------------------------------------------|-----------------------------------------|
B|------------------------------------------|-----------------------------------------|
G|------------------------------------------|------------------------------8----------|
D|-----8--10--10--11--11-----8--10--11--11--|--10--8--10--8--------10--11-----11------|
A|--8---------------------8-----------------|----------------11-------------------11--|
E|------------------------------------------|-----------------------------------------|



    Não vá se enganar     Vê se entende        Se te fazem chorar  Angustiada está



E|-------------------------------------|---------------------------------|
B|-------------------------------------|---------------------------------|
G|-----------------8--8--8------10--8--|-------------8--8--8--8------10--|
D|----------8--10-----------10---------|------8--10--------------10------|
A|--11--11-----------------------------|--11-----------------------------|
E|-------------------------------------|---------------------------------|


    Magoada com toda essa gente           Sozinha nunca estará


Refrão:


E|---------------------------------------|------------------------------|
B|---------------------------------------|---------9--8-----------------|
G|------------------------------------8--|------8--------10--8--10--10--|
D|--11--11--11--11--11--10----10--11-----|--10--------------------------|
A|---------------------------------------|------------------------------|
E|---------------------------------------|------------------------------|



E|------------------------------------------|--------------------------------------|
B|------------------------------------------|--------------------------------------|
G|------------------------------------------|--------------------------------------|
D|---------8--10--10--10--10--8------8------|-------------10--8--8------8--8-h-10--|
A|--8--11------------------------11-----11--|--8--11--11------------11-------------|
E|------------------------------------------|--------------------------------------|



E|------------------------------------------|------------------------------------|
B|------------------------------------------|---------9--9--8--8-----------------|
G|------------------8--------------------8--|------8--------------10--8--10--10--|
D|--11--11--11--11-----10----10--11--10-----|--10--------------------------------|
A|------------------------------------------|------------------------------------|
E|------------------------------------------|------------------------------------|


E|----------------------------------------------|----------------------------------------------------------|
B|----------------------------------------------|----------------------------------------------------------|
G|--------------------8----------10-------------|----------------------------------------8-----------------|
D|---------8--10--10-----10--10------10--8------|---------10--8--8------8--8-h-10----11-----10--8----------|
A|--8--11-----------------------------------11--|--8--11------------11-----------------------------11--11--|
E|----------------------------------------------|----------------------------------------------------------| 
	  

Search Paypal
auto scroll beats size up size down change color hide chords drawings
tab show chords e-chords YouTube Clip e-chords hide all tabs e-chords go to top tab

share with facebook