Douglas Moreira

Paris Ou Dubai

Douglas Moreira

tabs

by  ANG-LETRA

save to print version add songbook text version e-mail correct tuner
chordsukulelecavacokeyboardtabbassdrumsharmonicaflute Guitar Pro
close

there isn't a video lesson for this song

chords

Paris Ou Dubai

	  		1º parte: 

    
        E7/9        Bm7(11) 

E|------2---2---------2---2-----------| 
B|-----3---3---------3---3------------|   
G|----0---0---------0---0-------------|  (2x) 
D|---2---2---------2---2--------------| 
A|------------------------------------| 
E|------------------------------------| 


2º parte:  


       Am7           D11 

E|------2---2---------5---------------| 
B|-----3---3--------------------------| 
G|----0---0---------0-----------------| 
D|---2---2---------2------------------| 
A|------------------------------------| 
E|------------------------------------| 

                      E7/9 
Lembra quando eu te ligava? 
                   Bm7(11) 
Te convidava pra viagens,  
                  E7/9 
Mas eu nunca tive nada, 
                  Bm7(11) 
Eu só tinha coragem pra falar ..  


Parte 2: 
                      
                     C9 
Que tal se a gente fugir? 
                    D9 
Sem rumo pra longe daqui, 
                   Em 
Paris ou Dubai, eu sei que cê vai, 
              D9 
Pra mim tanto faz ..  


Refrão: 
         
       C9 
Inexplicável, teu jeito de ser, 
      D9 
Inevitável, eu não te querer, 
    Em 
Cê manda e desmanda, 

Na cama faz trama, 
      D9 
Nosso amor inflama, 
               C9 
Eu amo o teu jeito sagaz ..  
  D9                Em 
Ouô, Eu amo o teu jeito sagaz .. 
  D9                C9             D9 
Ouô, Eu amo o teu jeito sagaz .. Ouô 
		  

Full key step upFull key step up
Half key step upHalf key step up
Half key step downHalf key step down
Full key step downFull key step down
auto scroll beats size up size down change color hide chords drawings
tab show chords e-chords YouTube Clip e-chords hide all tabs e-chords go to top tab

share