Doobie Brothers

home > Doobie Brothers

Larry the Logger Tab

Doobie Brothers

Difficulty: nolevelnolevel

by Rowane

tuner correct add songbook print version text version save to e-mail
chordsukulelecavacokeyboardtabbassdrumsharmonicsflute Guitar Pro
chords

Larry the Logger

  		Larry the Logger  - Doobie Brothers  
. 
 
 
"Spinnin'?  One, two, uh, uh, uh..." 
 
   , . , . , . , .   , . , . , . , .   , . , . , . , .    , . , . , . , . 
||-------------0---|-3---------0-----|-----------0-----|----0--------------| 
||---------4-------|---------4-----1-|---------4-----3-|-/5-----5\3------0-| 
||-------0---------|-----------------|-------0---------|------0-----0------| 
||-------------3---|-----2-------3---|-----2-------3/--|--5-----------3----| 
||-----------------|-3---------------|-3---------------|-------------------| 
||---------3-------|---------3-------|---------3-------|----------3--------| 
 
 
   , . , . , . , .   , . , . , . , .   , . , . , . , .   , . , . , . , . 
|--------------0---|-3-------5-----0-|-----------0-----|-----------------| 
|-h1-------4-------|-----------4-----|---------4-----1-|-------------0h1-| 
|----0---0---------|-------------0---|-----------------|---0---0---------| 
|------2-------3---|-----2-----------|-----2-------3---|-----2-------3---| 
|--3---------------|-3---------------|-3---------------|-3---------------| 
|----------3-------|---------3-------|---------3-------|---------3-------| 
 
 
  , . , . , . , .   , . , . ,  .  , .   ,  .  , . , . , .   , . , . , . , . 
|-----------------|-------------------|-------------------|-----0-----------| 
|-----------0-----|---1-----0h1p0-----|-------------1-----|-3/4---4\3-------| 
|---------1-----2-|-------0-------0---|-0h2p0---0---------|-----------5---0-| 
|-----2-------0---|-----2---------2---|-------3-------2---|-----4-------4---| 
|-3---------------|-0-----------------|-----------3-------|-5-------5-------| 
|---------0-------|---------0---------|-1-----------------|-----------------| 
 
 
  , . , . , . , .   , . , . , . , .   , . , . , . , .   , . , . , . , . 
|-------------0---|-3-------5-----0-|-----------0-----|---------5---0---| 
|-0h1-----4-------|-----------4-----|---------4-----1-|-----------4---1-| 
|-----------------|-------------0---|---0---0---------|---0---0---------| 
|-------------3---|-----2-----------|-----2-------3---|-----2-----------| 
|-----0-----------|-3---------------|-3---------------|-3---------------| 
|-3-------3-------|---------3-------|---------3-------|---------3-------| 
 
 
  , . , . ,  .  , .   ,  .  , . , . , .   , . , . , . , .   , . , . , . , . 
|-------------------|-------------------|-----0-----------|-----------0----- 
|| 
|---------0h1p0-----|-------------1-----|-3/4---4\3-----3-|-5-----1--------- 
|| 
|---------------0---|-0h2p0---0---------|-----------5-----|---7---2--------- 
|| 
|-----2---------2---|-------3-------2---|-----4-------4---|-----6-------2--- 
|| 
|-0-----------------|-----------3-------|-5-------5-------|-7-------0------- 
|| 
|---------0---------|-1-----------------|-----------------|----------------- 
|| 
 
 
   , . , . , . , .   , . , . , . , .   , . , . , . , .   , . , . , . , . 
||-----------0-----|-------0---------|-----------0-----|-------0---------| 
||-----3-----------|-3---------3-----|-----3-----------|-3---------3-----| 
||-----3---------3-|---3-------------|-----2---------2-|---2-------------| 
||-----2-------2---|-----2-------2---|-----3-------3---|-----3-------3---| 
||-3---------------|-3---------------|-----------------|-----------------| 
||---------3-------|---------3-------|-1-------1-------|-1-------1-------| 
 
 
  , . , . , . , .   , . , . , . , .   , . ,  .  , . , .   , . , . , . , . 
|-----------0-----|-------0---------|-3---1h3p1-0-------|-----------------|| 
|-----3-----------|-3---------3-----|-------------3-----|-1p0-------------|| 
|-----5---------5-|---5-------------|-4---2-----------0-|-------2-----0---|| 
|-----4-------4---|-----4-------4---|---------------3---|-2---0-----------|| 
|-5---------------|-5---------------|-------------------|---------3---2---|| 
|---------5-------|---------5-------|-------------------|-----------------|| 
 
 
   , . , . , . , .   , . , . , . , .   , . , . , . , .   , . , . , . , . 
||-1---1---1-------|-3-3---0---------|-----------------|-3-3---3---------| 
||-1---1---0-------|-3---------3-----|-1-1-------1-----|---------------0-| 
||---------------0-|---------------0-|-------0-------0-|-----------------| 
||-----0-------0---|-----3-------3---|-----2-------2---|-----2-------0---| 
||-----------------|-----------------|-3---------------|-3---------------| 
||-3-------3-------|-3-------3-------|---------3-------|---------3-------| 
 
 
  , . , . , . , .   , . , . , . , .   , . , . , . , .   , . , . , . , . 
|-3p0---3p0---3p0-|---3p0---3p0-----|---0-------------|-----------------|| 
|-----3-----------|-3---------------|-4---1-------0-3-|-1---------------|| 
|-----------0-----|-------0-----0---|-------2---0-----|-----------0---0-|| 
|-----3-----------|-3---------------|---------3-------|-----2-------2---|| 
|-----------------|-----------------|-----------------|-3---------------|| 
|-3-----------3---|---------3-------|-----------------|---------3-------|| 
 
 
   , . , . , . , .   , . , . , . , .   , . , . , . , .   , . , . , . , . 
||-3-3---0---------|-----------------|-----------------|-----------------| 
||-----------------|-4-4---3---------|-1-1-------0-----|---1-------------| 
||-----------0---0-|-----------0---0-|-------0h1-----2-|---------3-------| 
||-----3-------3---|-----3-------3---|-----2-------2---|-----2-------3---| 
||-----------------|-----------------|-3---------------|-0-------3-------| 
||-3-------3-------|-3-------3-------|---------0-------|-----------------| 
 
 
  , . , . , . , .   , . , . , . , .   , . , . , . , .   , . , . , . , . 
|-----------------|-0-------5-------|-8-----------5---|---------0-------| 
|-----------1-----|---1-----2-----5-|---5-6-7-8-5---8-|-5-6-7-8---1-----| 
|-2p0---0h2-----0-|-----------------|-----------------|-------------2-0-| 
|-----3-------3---|-----0-----------|-----------------|-----------------| 
|-----------------|-3-------0-------|-----------------|-----------------| 
|-1-------1-------|-----------------|-----------------|-----------------| 
 
 
  , . , . , . , .   , . , . , . , . 
|---0-------------|---------8-------|| 
|-4---1-------0-3-|-1---------------||  
|-------2---0-----|---------5-------||  
|---------3-------|-----------------||  
|-----------------|-3---------------||  
|-----------------|-----------------|| 

	  

Search Paypal
auto scroll beats size up size down change color hide chords drawings
tab show chords e-chords YouTube Clip e-chords hide all tabs e-chords go to top tab