Don Ross

That Ll Be The Phone

Don Ross

tabs

by  ALESBARRAS

save to print version add songbook text version e-mail correct tuner
chordsukulelecavacokeyboardtabbassdrumsharmonicaflute Guitar Pro
close

there isn't a video lesson for this song

chords

That Ll Be The Phone

	  		Tuning - CGDGBD 

Keycode - (letter) - section name (number) - harmonic h - hammer on p - pull off > - slide ^ - slap harmonic  

Roadmap - A-H 
          A-H 
          A-F,F,G 

(A)  

|--------(12)-----(7)-----(5)----------------------------| |--------(12)-----(7)-----(5)--0-1--0-1-0-1->3-3--3-p0---| |--------(12)-----(7)-----(5)--0-0--0-0-0-0--0-0------0--| |------------------------------0-2--0-2-0-2->4-4-------4-|  
|-0-h7-77-----0-h4----0-h2-----0-0--0-0-0-0--0-0---------|  
|-0-h7-77-----0-h4----0-h2-------------------------------| 

(B)  
                                            ^  
|--------(12)-----(7)-----(5)-------------------(12)-| 
|--------(12)-----(7)-----(5)--0-1--0-1-0-1->3--(12)-| 
|--------(12)-----(7)-----(5)--0-0--0-0-0-0--0--(12)-| 
|------------------------------0-2--0-2-0-2->4-------| 
|-0-h7-77-----0-h4----0-h2-----0-0--0-0-0-0--0-------| 
|-0-h7-77-----0-h4----0-h2---------------------------| 

(C) 

|--------(12)-----(7)-----(5)--------------------| 
|--------(12)-----(7)-----(5)--0-1--0-1-0-1->3-3-| 
|--------(12)-----(7)-----(5)--0-0--0-0-0-0--0-0-| 
|------------------------------0-2--0-2-0-2->4-4-| 
|-0-h7-77-----0-h4----0-h2-----0-0--0-0-0-0--0-0-| 
|-0-h7-77-----0-h4----0-h2-----------------------| 

(D) 

|--------------7-x-xx---------------7---------------7-x-xx---------------7-| 
|-0-1--0-1-x-1-7-x-xx-0-11--0-1-x-1-7--0--1-0-1-x-1-7-x-xx-0-11--0-1-x-1-7-| 
|-0-0--0-0-x-0-7-x-xx-0-00--0-0-x-0-7--0--0-0-0-x-0-7-x-xx-0-00--0-0-x-0-7-| 
|-0-2--0-2-x-2-7-x-xx-0-22--0-2-x-2-7--0--2-0-2-x-2-7-x-xx-0-22--0-2-x-2-7-| 
|-0-2--0-2-x-2-7-x-xx-0-22--0-2-x-2-7--0--2-0-2-x-2-7-x-xx-0-22--0-2-x-2-7-| 
|--------------------------------------------------------------------------| 

(E) 

|--------0----(5)--------0---(5)-|  
|-0-1-2-33----(5)------3-3---(5)-|  
|-0-0-0-00----(5)-----0--0---(5)-|  
|-0-2-3-44-----------4---4-------|  
|-0-2-3-44-0h4------4----4-0h4---|  
|----------0h4-------------0h4---| 

(F) 

|---0---0--0---0---0--0---0---0--0---0---0--0-|  
|---------------------------------------------|  
|---------------------------------------------|  
|-5---4---4--5---4---4--4---2---2--4---2---2--|  
|-4---2---2--4---2---2--2---0---0--2---0---0--| 
|-2---2---2--2---2---2--0---0---0--0---0---0--| 

(G)  

|---0---0--0---0---0--0---0--------5---7--10-10-10--(12)-| |------------------------------0---5---7--10-10-10--(12)-| |------------------------------0---5---7--10-10-10--(12)-| |-5---4---4--5---4---4--4---2--2--55--77--10-10-10--(12)-| |-4---2---2--4---2---2--2---0--0--55--77--10-10-10--(12)-| |-2---2---2--2---2---2--0---0-----55--77--10-10-10--(12)-| 

(H)  

|---------(12)--------0--------------(12)--------0----------------------(7)-| |---------(12)--------0---5-7--------(12)--------0---5-7----(7)-(12)----(7)-| |--------------------------5-7------------------------5-7----(7)--------(7)-| |-4-2-->10----10>11>12----------9->10----10>11>12-------------(7)-----------| |-0-0-->9-----9->10>11----------8->9-----9->10>11---------0---------(7)-----| |-0-0-->9-----9->10>11----0-----8->9-----9->10>11----0-----0----------(7)---| 
		  

Full key step upFull key step up
Half key step upHalf key step up
Half key step downHalf key step down
Full key step downFull key step down
auto scroll beats size up size down change color hide chords drawings
tab show chords e-chords YouTube Clip e-chords hide all tabs e-chords go to top tab

share