Doc Watson

In The Pines

Doc Watson

tabs

by  PAULLET3

save to print version add songbook text version e-mail correct tuner
chordsukulelecavacokeyboardtabbassdrumsharmonicaflute Guitar Pro
close

there isn't a video lesson for this song

chords

In The Pines

	  		Chorus 

e|-------------------|0--0---------------|0--0------------0--|----------------0--| 
B|-------------------|1--1---------------|1--1------------1--|----------------1--| 
G|-------------------|0--0---0---0---0---|0--0---0--------0--|-0-h-2----------0--| 
D|-------------------|2--2---------------|2--2------2--3--3--|----------------2--| 
A|-------3---3---3---|3--3---------------|3--3---------------|--------3-------3--| 
E|-------------------|-------------------|-------------------|-------------------| 
         In the pines        In the pines        where the sun never shines 
e|-------------0-----|-------------0-----|------------0------|-------------------| 
B|-------------1-----|-------------0-----|------------1------|-------------------| 
G|---------0---0-----|--0----------0-----|------------0------|-------------------| 
D|------2------2-----|-----2-------0-----|------------2------|-------------------| 
A|---3---------3-----|-------------2-----|---2--3-----3------|---3---3---3-------| 
E|-------------------|--------3----3-----|3------------------|-------------------| 
      And you Shiver     When the Cold     Wind blows 

Verse 

e|-------------------|0--0---------------|0--0------------0--|----------------0--| 
B|-------------------|1--1---------------|1--1------------1--|----------------1--| 
G|-------------------|0--0---0---0---0---|0--0---0--------0--|-0-h-2----------0--| 
D|-------------------|2--2---------------|2--2------2--3--3--|----------------2--| 
A|-------3---3---3---|3--3---------------|3--3---------------|--------3-------3--| 
E|-------------------|-------------------|-------------------|-------------------| 
           Darlin'         Little Darlin'          What   have   I done  
e|-------------0-----|-------------0-----|------------0------|-------------------| 
B|-------------1-----|-------------0-----|------------1------|-------------------| 
G|---------0---0-----|--0----------0-----|------------0------|-------------------| 
D|------2------2-----|-----2-------0-----|------------2------|-------------------| 
A|---3---------3-----|-------------2-----|---2--3-----3------|---3---3---3-------| 
E|-------------------|--------3----3-----|3------------------|-------------------| 
     That's made        you treat           me so 
e|-------------------|0--0---------------|0--0------------0--|----------------0--| 
B|-------------------|1--1---------------|1--1------------1--|----------------1--| 
G|-------------------|0--0---0---0---0---|0--0---0--------0--|-0-h-2----------0--| 
D|-------------------|2--2---------------|2--2------2--3--3--|----------------2--| 
A|-------3---3---3---|3--3---------------|3--3---------------|--------3-------3--| 
E|-------------------|-------------------|-------------------|-------------------| 
          You've caused     Me to weep            and you've caused me to mourn                               
e|-------------0-----|-------------0-----|------------0------|-------------------| 
B|-------------1-----|-------------0-----|------------1------|-------------------| 
G|---------0---0-----|--0----------0-----|------------0------|-------------------| 
D|------2------2-----|-----2-------0-----|------------2------|-------------------| 
A|---3---------3-----|-------------2-----|---2--3-----3------|---3---3---3-------| 
E|-------------------|--------3----3-----|3------------------|-------------------| 
      And you've cased   me to leave      my home                                                         

Solo 

e|-----------0----0--|--------3-3---3----|3-------3--3-h-5---|---3--------3--3---| 
B|---1---3--------1--|-1-s-5--------5----|---5--6------------|---5-----5-----5---| 
G|----------------0--|-------------------|------------------5|---5--5--------5---| 
D|-------------------|-------------------|-------------------|-------------------| 
A|-------------------|-------------------|-------------------|-------------------| 
E|-------------------|-------------------|-------------------|-------------------| 

e|---3----------3----|------------------0|-------------------|-------------------| 
B|------5-------5----|-------0---1------1|-------------------|-------------------| 
G|---------0----0----|---0--------------0|-------------------|-------------------| 
D|-------------------|------------------2|-------------------|-------------------| 
A|-------------------|------------------3|-------3----3---3--|-------------------| 
E|-------------------|-------------------|-------------------|-------------------| 

Verse 
                                                     
e|-------------------|0--0---------------|0--0------------0--|----------------0--| 
B|-------------------|1--1---------------|1--1------------1--|----------------1--| 
G|-------------------|0--0---0---0---0---|0--0---0--------0--|-0-h-2----------0--| 
D|-------------------|2--2---------------|2--2------2--3--3--|----------------2--| 
A|-------3---3---3---|3--3---------------|3--3---------------|--------3-------3--| 
E|-------------------|-------------------|-------------------|-------------------| 
           If I'd            Have listened       To what mamma said 
e|-------------0-----|-------------0-----|------------0------|-------------------| 
B|-------------1-----|-------------0-----|------------1------|-------------------| 
G|---------0---0-----|--0----------0-----|------------0------|-------------------| 
D|------2------2-----|-----2-------0-----|------------2------|-------------------| 
A|---3---------3-----|-------------2-----|---2--3-----3------|---3---3---3-------| 
E|-------------------|--------3----3-----|3------------------|-------------------| 
     Then I would       Not be            Here today  
e|-------------------|0--0---------------|0--0------------0--|----------------0--| 
B|-------------------|1--1---------------|1--1------------1--|----------------1--| 
G|-------------------|0--0---0---0---0---|0--0---0--------0--|-0-h-2----------0--| 
D|-------------------|2--2---------------|2--2------2--3--3--|----------------2--| 
A|-------3---3---3---|3--3---------------|3--3---------------|--------3-------3--| 
E|-------------------|-------------------|-------------------|-------------------| 
          But the same        Old train          that brought me here 
e|-------------0-----|-------------0-----|------------0------|-------------------| 
B|-------------1-----|-------------0-----|------------1------|-------------------| 
G|---------0---0-----|--0----------0-----|------------0------|-------------------| 
D|------2------2-----|-----2-------0-----|------------2------|-------------------| 
A|---3---------3-----|-------------2-----|---2--3-----3------|---3---3---3-------| 
E|-------------------|--------3----3-----|3------------------|-------------------| 
    Well it soon      is gonna carry      me away 

Chorus 

e|-------------------|0--0---------------|0--0------------0--|----------------0--| 
B|-------------------|1--1---------------|1--1------------1--|----------------1--| 
G|-------------------|0--0---0---0---0---|0--0---0--------0--|-0-h-2----------0--| 
D|-------------------|2--2---------------|2--2------2--3--3--|----------------2--| 
A|-------3---3---3---|3--3---------------|3--3---------------|--------3-------3--| 
E|-------------------|-------------------|-------------------|-------------------| 
         In the pines        In the pines        where the sun never shines 
e|-------------0-----|-------------0-----|------------0------|-------------------| 
B|-------------1-----|-------------0-----|------------1------|-------------------| 
G|---------0---0-----|--0----------0-----|------------0------|-------------------| 
D|------2------2-----|-----2-------0-----|------------2------|-------------------| 
A|---3---------3-----|-------------2-----|---2--3-----3------|---3---3---3-------| 
E|-------------------|--------3----3-----|3------------------|-------------------| 
      And you Shiver     When the Cold     Wind blows 


Verse 
                                                     
e|-------------------|0--0---------------|0--0------------0--|----------------0--| 
B|-------------------|1--1---------------|1--1------------1--|----------------1--| 
G|-------------------|0--0---0---0---0---|0--0---0--------0--|-0-h-2----------0--| 
D|-------------------|2--2---------------|2--2------2--3--3--|----------------2--| 
A|-------3---3---3---|3--3---------------|3--3---------------|--------3-------3--| 
E|-------------------|-------------------|-------------------|-------------------| 
         The long           -gest train           I    ever          saw          
e|-------------0-----|-------------0-----|------------0------|-------------------| 
B|-------------1-----|-------------0-----|------------1------|-------------------| 
G|---------0---0-----|--0----------0-----|------------0------|-------------------| 
D|------2------2-----|-----2-------0-----|------------2------|-------------------| 
A|---3---------3-----|-------------2-----|---2--3-----3------|---3---3---3-------| 
E|-------------------|--------3----3-----|3------------------|-------------------| 
      Rode down     that Georg--         --ie Line             
e|-------------------|0--0---------------|0--0------------0--|----------------0--| 
B|-------------------|1--1---------------|1--1------------1--|----------------1--| 
G|-------------------|0--0---0---0---0---|0--0---0--------0--|-0-h-2----------0--| 
D|-------------------|2--2---------------|2--2------2--3--3--|----------------2--| 
A|-------3---3---3---|3--3---------------|3--3---------------|--------3-------3--| 
E|-------------------|-------------------|-------------------|-------------------| 
          The en--        --gine passed          At six        O'Clock  
e|-------------0-----|-------------0-----|------------0------|-------------------| 
B|-------------1-----|-------------0-----|------------1------|-------------------| 
G|---------0---0-----|--0----------0-----|------------0------|-------------------| 
D|------2------2-----|-----2-------0-----|------------2------|-------------------| 
A|---3---------3-----|-------------2-----|---2--3-----3------|---3---3---3-------| 
E|-------------------|--------3----3-----|3------------------|-------------------| 
   And the last car     went by          at nine  


Chorus 

e|-------------------|0--0---------------|0--0------------0--|----------------0--| 
B|-------------------|1--1---------------|1--1------------1--|----------------1--| 
G|-------------------|0--0---0---0---0---|0--0---0--------0--|-0-h-2----------0--| 
D|-------------------|2--2---------------|2--2------2--3--3--|----------------2--| 
A|-------3---3---3---|3--3---------------|3--3---------------|--------3-------3--| 
E|-------------------|-------------------|-------------------|-------------------| 
         In the pines        In the pines        where the sun never shines 
e|-------------0-----|-------------0-----|------------0------|-------------------| 
B|-------------1-----|-------------0-----|------------1------|-------------------| 
G|---------0---0-----|--0----------0-----|------------0------|-------------------| 
D|------2------2-----|-----2-------0-----|------------2------|-------------------| 
A|---3---------3-----|-------------2-----|---2--3-----3------|---3---3---3-------| 
E|-------------------|--------3----3-----|3------------------|-------------------| 
      And you Shiver     When the Cold     Wind blows 


*********************************** 

|(n)  ghost note 
| /   slide up 
| \   slide down 
| h   hammer-on 
| p   pull-off 
| ~   vibrato 
| b   bend 
| r   release 
| NH  natural harmonic 

*********************************** 
		  

See also:

tabs Kansas - Carry On My Way Word Son tabs Gillian Welch - Revelator tabs Garth Brooks - Friends In Low Places tabs Rascal Flatts - Fast Cars And Freedom (ver.2) tabs Big & Rich - Save A Horse Ride A Cowboy-correct tabs Bluegrass - Whiskey Before Breakfast
e-chords

Other versions:

tabs Doc Watson - In The Pines
auto scroll beats size up size down change color hide chords drawings
tab show chords e-chords YouTube Clip e-chords hide all tabs e-chords go to top tab

share