Django Reinhardt

home > Django Reinhardt

It Dont Mean A Thing Tab

Django Reinhardt

Difficulty: BeginnerBeginner

by Nick+D

tuner correct add songbook print version text version save to e-mail
chordsukulelecavacokeyboardtabbassdrumsharmonicsflute Guitar Pro
chords

It Dont Mean A Thing

  		     Gm                            Eb7   D7    G7          
E||---------------10~-----------|------------------------| 
B||-----------11-------------11-|--13r-----11------------| 
G||--7----12--------------12----|--------------12--------| 
D||-----------------------------|------------------------| 
A||-----------------------------|------------------------| 
E||-----------------------------|------------------------| 


  C7            F7         Bb                    D7              
----------10------------|----------------10--9-8---------------| 
---10/11----------------|-------------------------10-----------| 
------------------------|--10h11p10-9-10-------------11--7-----| 
------------------------|-----------------------------------9--| 
------------------------|--------------------------------------| 
------------------------|--------------------------------------| 


  Gm                       Eb7      D7    G            
------------------------|----------------------------| 
------------------------|----------------------------| 
-------------7----------|--6--6--6--5----------------| 
--5----5--8---------5-8-|--------------8--5----5/-8--| 
------------------------|----------------------------| 
------------------------|----------------------------| 


  C7            F7            Bb                           
-----10----------10--------|-----8-----------------8-----| 
---------8----8------8-----|--------8------------8----8--| 
--7---------7--------------|--7--------7---0---7---------| 
---------------------------|-------------8---8-----------| 
---------------------------|-----------------------------| 
---------------------------|-----------------------------| 


  Bb7                              Eb7M                        
-------10--9-8h9p8------------6-|--3h4p3---------------------| 
--------------------9-6---------|--------------------------8/| 
--7---------------------7-6-5---|--------3---------------9---| 
--------------------------------|-----------5---------10-----| 
--------------------------------|----------------------------| 
--------------------------------|----------------------------| 


  C7                                      
----------------------------------------| 
--13--12--11--10------------------------| 
------------------13--12--11/10-11p10p9-| 
----------------------------------------| 
----------------------------------------| 
----------------------------------------| 


  F7                 D7               Gm                            
-----------------------------------|--2-5-3-----------6/10--10----| 
---------------------------------3-|----------------8-------------| 
-----------------------------------|----------0---7---------------| 
--12-11-10-9-8-7-6-5-4-3-2-1-0-----|------------8-----------------| 
-----------------------------------|------------------------------| 
-----------------------------------|------------------------------| 


  Eb7     D7    G                  C7                              
--10~---------------------------|--10---------10-----------10----| 
-------13---11-----------10-11--|----------11--------7-10--------| 
----------------12----12--------|-------12---------8-------------| 
--------------------------------|--------------------------------| 
--------------------------------|--------------------------------| 
--------------------------------|--------------------------------| 


  Bb        D7        
--------15----------| 
--------------------| 
--------------------| 
--------------------| 
--------------------| 
--------------------| 


  Gm                                                
--15p14-17p14-15p14-17p14-15p14-17p14-15p14-17p14-| 
--------------------------------------------------| 
--------------------------------------------------| 
--------------------------------------------------| 
--------------------------------------------------| 
--------------------------------------------------| 


  Eb7         D7          G                   
--15p14-17p14-15p14-17p14-15----13-12-10----| 
-----------------------------------------12-| 
--------------------------------------------| 
--------------------------------------------| 
--------------------------------------------| 
--------------------------------------------| 


  C7                 F7                              
---------------12-15-13h14p13-12-13-11h12p11-10-11-| 
--13--------13-------------------------------------| 
------9--12----------------------------------------| 
---------------------------------------------------| 
---------------------------------------------------| 
---------------------------------------------------| 


  Bb                      D7                   
--10h11p10-9-10-8h9p8-7-8-6h7p6-5-6-5h6p5----| 
---------------------------------------------| 
------------------------------------------7--| 
---------------------------------------------| 
---------------------------------------------| 
---------------------------------------------| 


  Gm                                        
------------------------------------------| 
--------------10--11--13--10--11------10--| 
--12------12----------------------12------| 
------------------------------------------| 
------------------------------------------| 
------------------------------------------| 


  Eb7         D7          G                   
--------------------------------------11/---| 
--11--13--10--11------10--11--13--14--------| 
------------------12------------------------| 
--------------------------------------------| 
--------------------------------------------| 
--------------------------------------------| 


  C7        F7                Bb                                 
--------------------6--5-8-|--6h7p6-------------------10-13-10-| 
------------------8--------|--------8-6------------------------| 
--------------5-7----------|------------6-7---0----------------| 
----------5-8--------------|----------------8---8--------------| 
--------7------------------|-----------------------------------| 
---------------------------|-----------------------------------| 


  Bb7                                
--9-12-9-8-11-8--------------------| 
----------------9-0------8-11-8----| 
-----------------------8-----------| 
--------------------10-------------| 
-----------------------------------| 
-----------------------------------| 


  Eb7M                               C7                            
-------------10--10------10h11h12-|--12-10---10-----10----10-----| 
--------8-11----------------------|------------------------------| 
----7/8---------------------------|--------------9------9--------| 
----------------------------------|------------------------------| 
----------------------------------|------------------------------| 
----------------------------------|------------------------------| 


  F7           D7               Gm                         
---10---9--10--11--10/-5--6--|--------------10---8---10--| 
-----------------------------|--8----8--11---------------| 
---7----6--7---8---7/--2--3--|--------------7----5---7---| 
-----------------------------|--5----5--8----------------| 
-----------------------------|---------------------------| 
-----------------------------|---------------------------| 


  Eb7  D7     G                C7           F7            
---9---8--------------------|--8--10--10-----10---10----| 
----------11--8----8--10----|---------------------------| 
---6---5--------------------|--5--7---7------7----7-----| 
----------8---5----5--7-----|---------------------------| 
----------------------------|---------------------------| 
----------------------------|---------------------------| 


  Bb        D7                                    G              
--------------------|------------------|-----------4--3--------| 
--11----------------|------------------|----------------6--3---| 
--------------------|------------------|---------------------4-| 
--8-----------------|------------------|-----------------------| 
--------------------|------------------|-----------------------| 
--------------------|------------------|-----------------------| 


  C7              F7                Bb       D7        
---------------------------------|-------------------| 
------------------------------3--|-------------------| 
--5p4-5p4-5p4-5p4-5p4-5p4-5-6----|------3------------| 
---------------------------------|-------------------| 
---------------------------------|-------------------| 
---------------------------------|-------------------| 


                             G                 
------------------|----------------------1-4-| 
------------------|--------------------3-----| 
------------------|----------------1-4-------| 
------------------|------------0-3-----------| 
------------------|----------2---------------| 
------------------|--------------------------| 


  C7                F7          Bb7                            
--3h4p3-0--------------------|-------------------------------| 
----------1------------------|-------------------------------| 
------------3-0--------------|-------------------------------| 
----------------2---3--------|-------------------------------| 
------------------3----------|--1p0-1p0-1p0-1p0-1p0-1p0-1----| 
-----------------------------|-------------------------------| 


                     5x          G                     
|--------------------||------------15p14-17p14-15p14-| 
|--------------------||------------------------------| 
|*------------------*||------------------------------| 
|*------------------*||------------------------------| 
|--------------------||------------------------------| 
|--------------------||------------------------------| 


  C7                      F7                        
--17p14-15p14-17p14-15p14-17p14-15p14-17p14-15p14-| 
--------------------------------------------------| 
--------------------------------------------------| 
--------------------------------------------------| 
--------------------------------------------------| 
--------------------------------------------------| 


  Bb            D7         Gm                         
--16----15---14---------|-------------10---13---12--| 
------------------------|--8----11------------------| 
------------------------|-------------7----10---9---| 
------------------------|--5----8-------------------| 
------------------------|---------------------------| 
------------------------|---------------------------| 


                                                2x 
--------13--12--10--------||--------------------|| 
----13--------------------||--------------------|| 
--------10--9---7---------||*------------------*|| 
----10--------------------||*------------------*|| 
--------------------------||--------------------|| 
--------------------------||--------------------|| 


  Gm                                     
------------10------------9------------| 
--8h9p8-7-8-----8h9p8-7-8----8h9p8-7-8-| 
---------------------------------------| 
---------------------------------------| 
---------------------------------------| 
---------------------------------------| 


  Eb7      D7     G                                2x 
--8------------7-------------||--------------------|| 
-----8h9p8-7-8----8----------||--------------------|| 
--------------------7--------||*------------------*|| 
----------------------9------||*------------------*|| 
-----------------------------||--------------------|| 
-----------------------------||--------------------|| 


  Bb7                               Eb7M                       
----6/-10--9-8-----------------6-|--3------------------------| 
---------------9-----------------|----4-----------------8-11-| 
-----------------10-7-6-5h6p5----|------3-------------8------| 
---------------------------------|---------5-----------------| 
---------------------------------|---------------------------| 
---------------------------------|---------------------------| 


  C7                               F7           D7            
--10--9--8--7--6h7p6------------|------6--10----10~---10~---| 
---------------------8----------|----8----------------------| 
-----------------------7----0---|--7------------------------| 
-------------------------8----8-|---------------------------| 
--------------------------------|---------------------------| 
--------------------------------|---------------------------| 


  Gm                                             
--------------15-------14-------13------12-----| 
-----------------------------------------------| 
--12-12-12-12----12-11----11-10----10-9----9-8-| 
-----------------------------------------------| 
-----------------------------------------------| 
-----------------------------------------------| 


                                G7                2x 
--11-----10-----9----------||---3-----------------|| 
---------------------------||---6-----------------|| 
-----8-7----7-6------------||*--4----------------*|| 
---------------------------||*--3----------------*|| 
---------------------------||---5-----------------|| 
---------------------------||---3-----------------|| 





	  

Full key step upFull key step up
Half key step upHalf key step up
Half key step downHalf key step down
Full key step downFull key step down
Search Paypal
auto scroll beats size up size down change color hide chords drawings
tab show chords e-chords YouTube Clip e-chords hide all tabs e-chords go to top tab