Django Reinhardt

Fleche D'or

Django Reinhardt

tabs Advanced advanced

save to print version add songbook text version e-mail correct tuner
chordsukulelecavacokeyboardtabbassdrumsharmonicaflute Guitar Pro
close

there isn't a video lesson for this song

chords

Fleche D'or

	  		Fleche D'or  by Django Reinhardt
Crazy B-minor gypsy jump swing/blues/jazz phatness
strange 40 bar A A* B B* A* form

The chord progression during the solo (bridge especially)
doesn't really follow the chords during the head, but the 
structure is the same. 
this piece has countless angry 1920's gansgster with 
bootleg liquor, tommy gun licks.
enjoy!  [email protected]

4/4 time
2 notes per number mean 8th notes
3 per number mean 8th note triplets
Most of the single note runs are straight 8th notes, with occaisional 
hammer/pull triplets.  at LEAST 200 bpm..burnin'


"A" Section
  Bm               F#7             Bm              F#7    
  1   2   3   4    1   2   3   4   1   2   3   4    1        2   3   4   
  -------------------9------------------------------12-10h12p10---------
  --------7-8-9-10-11----------------------7-8-9-10------------9-7===---
  --6-7-9----------------------------6-7-9------------------------------
8-9------------------------------8-9-----------------------------------8
  ----------------------------------------------------------------------
  ----------------------------------------------------------------------

Bm               F#7               
1   2   3   4    1   2   3   4     
-------------------9---------8h10p8
--------7-8-9-10-11--------10------
--6-7-9----------------------------
9----------------------------------
-----------------------------------
-----------------------------------

Bm              Bm
1    2   3     4      1   2     3     4   
-7h9p7---8h10p8--9h11p9---8h10p8----------
9-----10-------11------10-------10/12-----
------------------------------------------
----------------------------------------8-
------------------------------------------
------------------------------------------




"A*" Section
Bm               F#7             Bm              F#7    
1   2   3   4    1   2   3   4   1   2   3   4    1        2   3   4   
-------------------9------------------------------12-10h12p10---------
--------7-8-9-10-11----------------------7-8-9-10------------9-7===---
--6-7-9----------------------------6-7-9------------------------------
9------------------------------8-9-----------------------------------8
----------------------------------------------------------------------
----------------------------------------------------------------------

Bm               F#7                   
1   2   3   4    1   2   3   4     
-------------------9---------8h10p8
--------7-8-9-10-11--------10------
--6-7-9-----------------------------
9----------------------------------
-----------------------------------
-----------------------------------

Bm                     Bm
1     2   3     4      1   2       3   4   
-7h9p7----8h10p8--9h11p9---10h12p10--------
9-------10------11-------12--------12~-----
-------------------------------------------
-------------------------------------------
-------------------------------------------
-------------------------------------------

"B" Section  (Pretty straight forward, but the G F# F 
part means hit those chords on the up beat)
E13                                                  G7  F#7 F7
1    2   3   4   1    2   3   4   1    2   3   4   1 & 2 & 3 & 4 
12-12----10------12-12----10------12-12----10----------------------
-----12------11-------12------11-------12------11----3---2---1-----
-----------------------------------------------------4---3---2-----
-----------------------------------------------------3---2---1-----
-------------------------------------------------------------------
-----------------------------------------------------3---2---1-----  

E13                                                G7   
1    2   3   4   1    2   3   4   1    2   3   4   1 & 2 & 3 & 4 
12-12----10------12-12----10------12-12----10----------------------
-----12------11-------12------11-------12------11----3-3-3-3-3-----
-----------------------------------------------------4-4-4-4-4-----
-----------------------------------------------------3-3-3-3-3-----
-------------------------------------------------------------------
------------------------------------------------------------------- 


"B*" section (same as B 'cept ends on F# instead of G)
E13                                                  G7  F#7 F7
1    2   3   4   1    2   3   4   1    2   3   4   1 & 2 & 3 & 4 
12-12----10------12-12----10------12-12----10----------------------
-----12------11-------12------11-------12------11----3---2---1-----
-----------------------------------------------------4---3---2-----
-----------------------------------------------------3---2---1-----
-------------------------------------------------------------------
-----------------------------------------------------3---2---1-----  

E13                                                F#7/b9   
1    2   3   4   1    2   3   4   1    2   3   4   1 & 2 & 3 & 4 
12-12----10------12-12----10------12-12----10----------------------
-----12------11-------12------11-------12------11----8-8-8-8-8-----
-----------------------------------------------------9-9-9-9-9-----
-----------------------------------------------------8-8-8-8-8-----
-----------------------------------------------------9-9-9-9-9-----
-------------------------------------------------------------------

Repeat "A*" Section once more...
then comes the solo over the same AABBA





SOLO SOLO SOLO SOLO SOLO SOLO SOLO SOLO SOLO SOLO SOLO SOLO!!!!!!!!!!

  
1   2   3   4   1    2   3   4   1   2   3   4   1   2   3   4
12b13^^^^b14^^^^12-0-10--9-0-7-6----------------------/7---------
-------------------------------------8-7-------------------------
-----------------------------------------9-7---------------------
-------------------------------------------------10--------------
-----------------------------------------------------------------
-----------------------------------------------------------------

1   2    3   4     1     2    3     4    
-------------14-13-12-11-10-9-12-10-9----
------11/12---------------------------12-
-----------------------------------------
-----------------------------------------
-----------------------------------------
-----------------------------------------

1       2    3    4    1   2   3   4   
-----------------------------------------
11h12p11---------------------------------
--------12-0-9--------------------------
----------------12-11-9-8-9--9~---------
-----------------------------------------
-----------------------------------------

1   2   3   4   1   2   3     4   1   2   3   4     1    2   3   4
------------------------3h4p3-2------------/8-h10p8-7-----------------
------------3-2-----2-5---------5-3-------------------10-8-7----------
----------4-----4-3------------------------------------------9-0------
--1-2-3/4--------------------------------------------------------10-8-
----------------------------------------------------------------------
----------------------------------------------------------------------

1   2   3   4   1    2   3   4   1    2   3   4    1   2   3   4
-------------------------------------------------------------------
----------------10-9-8-7-------------------------------------------
-------------------------9-7-6--------11---------------------------
9~-----------------------------9-8h9p8----------8----9-9~~---------
-------------------------------------------------------------------
-------------------------------------------------------------------

          
1   2   3   4    1    2   3    4   1    2    3   4    1    2    3   4
----------------------12-0----------------------------------------------
-----------------12-0-----12-0------------------------------------------
------------11-0---------------11-0--------------10-0-11-x-10-x-9-------
--------9-0------------------------11-x-10-x-9-x------------------------
------------------------------------------------------------------------
------------------------------------------------------------------------



1   2   3    4    1     2    3     4     1    2   3   4   1   2   3   4
------12--11-10-9---------------------------------------------------------
------------------12-10-9-------------------------------------------------
--------------------------11-9h11p9---------------------------------------
-----------------------------------12-11-9-6-----5-----------------------
------------------------------------------------------------------------6/
--------------------------------------------------------------------------

 
 1   2    3   4      1   2    3    4   1   2     3     4    1   2  3 4
 ------------------------------------------10-14-13h14p13-14-1410-----
 --------------------------------------9-12----------------------------
 -------------9h11p9-8---------------11--------------------------------
 ---------8-9--------------------9-12----------------------------------
/7-8-9-10----------------9-10-11---------------------------------------
 ----------------------------------------------------------------------


1   2   3    4   1   2   3   4   1   2     3   4   1   2   3   4
----9-7------------------------------9p76-7---9-7-6---------------
--------10-9-7-----------------------------------------8-7---------
---------------9-7-6---------------------------------------9---6-7-
---------------------9-7-6-9--------------------------------------
-------------------------------------------------------------------
-------------------------------------------------------------------



1   2   3   4   1   2   3   4   1   2   3   4   1   2    3     4
--------------------------6h7---8----/15-------------13-14-------12
----------------------6h7----------------------------------15-12---
------------------6h7-------------------------------------------
9-------------8h9-----------------------------------------------
----9-----8h9---------------------------------------------------
--------------------------------------------------------------------


1     2     3    4     1    2    3   4    
-----------------------------------------
14-15-14-12-0------------------------9-12
--------------11-------------------11----
-----------------12-9----------9-12------
-----------------------11-9-11-----------
-----------------------------------------

1        2    3     4    1     2    3    4   
10h12p10-9-------14--------------------------
-----------12-11------11---12-12~------------
---------------------------------------------
---------------------------------------------
---------------------------------------------
---------------------------------------------


    trem.......................     trem....................
1   2   3   4   1   2   3   4   1   2   3   4   1   2   3   4
----14=======================\----14======================15-17-
----17b19===============r18==\----17b19===============r18=------
------------------------------------------------------------------
------------------------------------------------------------------
------------------------------------------------------------------
------------------------------------------------------------------


1   2   3   4   1     2     3     4     1       2     3    4  1  2  3  4
19--------------17-16-15-14---------------------------------------------
----------------------------17-15-14-12-11h12p11------------------------
------------------------------------------------12-11-9-----------------
--------------------------------------------------------12-11-9~--------
------------------------------------------------------------------------
------------------------------------------------------------------------


1   2   3   4   1   2    3   4   1   2   3   4   1   2   3   4
-----------------------------------------------------------------
14------15------14--12-12--------14--14--14--15--15--12--12------
18------19------18--16-16--------18--18--18--19--19--16--16------
-----------------------------------------------------------------
-----------------------------------------------------------------
-----------------------------------------------------------------


1   2   3     4   1   2   3     4   1   2     3   4   1   2   3   4
------6/7h9p7-6---------6/7h9p7-6-------7h9p7-6-----7---7-6---7------
----------------------------------------------------------------------
----------------------------------------------------------------------
----------------------------------------------------------------------
----------------------------------------------------------------------
----------------------------------------------------------------------


1     2   3   4   1        2     3     4   1   2   3     4   1     2 3 4
7-6-5-4-----------12-11-10-9-----9-8-7-6-----------9-8-7-6---6-5-4-3-----
-------------------------------------------------------------------------
-------------------------------------------------------------------------
-------------------------------------------------------------------------
-------------------------------------------------------------------------
-------------------------------------------------------------------------

1   2   3   4   1   2   3   4   1   2   3   4   1   2     3   4
--------3-4-5-6-----3-4-5-6-----6-7-8-9-----6-7-8-9-10-11-12------
------------------------------------------------------------------
------------------------------------------------------------------
------------------------------------------------------------------
------------------------------------------------------------------
------------------------------------------------------------------
1   2   3        4    1    2    3     4   1   2   3   4   1   2     3   4
-------/10h12p10-9--------------------------------------------10-14------
-------------------12-10-9--------------------------------9-12------11~--
---------------------------11-9-------------------------11---------------
--------------------------------12-11-9-6-----------9-12-----------------
--------------------------------------------9--10-11---------------------
-------------------------------------------------------------------------

1   2   3    4    1   2    3   4   1   2   3   4     1   2    3   4
--------14-12--13-11--12-0-0---------------9-9-7h9p7-6----------------
-------------13-----12---------------------------------8-7h8p7--------
--------------------------------------------------------------9-7-6---
--------------------------------------------------------------------9-
----------------------------------------------------------------------
----------------------------------------------------------------------

1     2   3   4     1   2   3   4   1   2  3   4   1   2     3   4
--------------------------------6-7-8-6----7----/14------------/12h14p12
--------------------------6-7-9-----------------------------------------
--------------------6-7-9-----------------------------------------------
8h9p8-9~----------------------------------------------------------------
------------------------------------------------------------------------
------------------------------------------------------------------------

1    2    3    4    1   2   3   4        1    2   3   4   1   2   3   4
10------------------------------10h12p10-9-------/15---------------------
--12-0----------------------9-12-----------12-11-------------------------
-------11-----------------11---------------------------------------------
----------12-9--------9-12-----------------------------------------------
---------------11-9-11---------------------------------------------------
-------------------------------------------------------------------------

play dee head again and then launder some money
ben   [email protected]

		  

Full key step upFull key step up
Half key step upHalf key step up
Half key step downHalf key step down
Full key step downFull key step down
hide glossary

See also:

tabs Django Reinhardt - Tears tabs Django Reinhardt - Belleville tabs Django Reinhardt - Appelle Direct tabs Django Reinhardt - Fleche D'or tabs Django Reinhardt - Montagne Sainte-genevieve tabs Django Reinhardt - It Dont Mean A Thing
e-chords

Other versions:

tabs Django Reinhardt - Fleche D'or
auto scroll beats size up size down change color hide chords drawings
tab show chords e-chords YouTube Clip e-chords hide all tabs e-chords go to top tab

share