Dishwalla

Charlie Browns Parents

Dishwalla

tabs Expert expert

save to print version add songbook text version e-mail correct tuner
chordsukulelecavacokeyboardtabbassdrumsharmonicaflute Guitar Pro
close

there isn't a video lesson for this song

chords

Charlie Browns Parents

	  		     E  A  D  G  B  e
F5   2  4  4  x  x  x
A5   5  7  7  x  x  x
B*   7  9  9  8  7  7 
D5   x  5  7  7  x  x
C#*  9  11 11 10 9  9
D*   10 12 12 11 10 10
Dm7* 10 12 10 10 10 10
   
              A                  C#                          D
E-----5-------------5---/9-------------------9----/10----------------
A-------7---------7-------11-------------11-----------12-----------12 
D---------7-----7-----7------11-------11----------------12-------12--
G-------------6--------------------10------------------------11------
B--------------------------------------------------------------------
e-------------------------------------------------------------------- 
            Dm7                 riff for first time  end of second 
time 
E-----10------10------------------------------------A-------------12-
----------------------------------D-------------10-------------------
-----------------G-------------10--- play x 
3-9h10p9---7-7-7h9-9-7-7/9--------B-------------10-------------------
----------------e--------------------------------------------------

third time hold Dm7

Verse:
I can't hear what you're saying,
what you're do unto to me
Can't you see I
take the jaws of life to pry open your words
so pry open your words

PART 1
A---4-3-2-1-0-----4-4  play x 4
D-------------4-3----

F5    A5    B*    D5

PART 2
          I don't want to talk about elvis  No I don't want to go on
--2/----------------------------------------------------------------
--2/----------------------------------------------------------------
--------------------------------------------------------------------
----------9---9---9---9---8---8---7---7------9---9---8---8---7---7---
---------10--10--10--10-10--10--10--10--10--10--10--10--10-10-
----------9---9---9---9---9---9---9---9------9---9---9---9---9---9---

pretending, no.

PART 3
 because it feel like I'm talking to   talking to charlie brown's 
parents 
G---9----9--9-------------9----9--9----9----9--9-------------------
B---10---10-10------------10---10-10---10---10-10---15-15-15-15-15-15
e----9----9--9------------12---12-12---11---11-11---15-15-15-15-15-15 
 REPEAT

it feels like I'm talking to talking to lonely men without a vision 
stuck
his mouth with indecision.

PART 4
F5   A5            B*                            D5
      F5  
        Why he's a lonely man without a vision stuff his mouth with 
indecision

     A5   B*      D5   A5             C#*              D*
          Ohhhh        cause I can't hear what you're saying

             Dm7*      A5
what you're doing to me

           C#*           D*              Dm7*
can't you see it would take the jaws of life to pry open your words

PART 2
I don't want to talk about Jesus
And I don't want to go on converting, no

PART 3
because it feels like I'm talking to
talking to charlie brown's parents
feels like I'm talking to 
lonely man without a vision, 
stuck his mouth with indecision

PART 4
Yeah, why he's a lonely man without a vision 
stuck his mouth with indecision
Ohhh Ohhh
cause I can't hear what you're saying
what you're doing to me
can't you see it would take
the jaws of life to pry open your words

PART 1
why he's a lonely man without a vision 
stuck his mouth with indecision

repeat PART 4 (chorus) and fade
		  

Full key step upFull key step up
Half key step upHalf key step up
Half key step downHalf key step down
Full key step downFull key step down
auto scroll beats size up size down change color hide chords drawings
tab show chords e-chords YouTube Clip e-chords hide all tabs e-chords go to top tab

share