Dirty Wolves

Minister Of Rock N Roll

Dirty Wolves

tabs Advanced advanced

by  ANG-LETRA

save to print version add songbook text version e-mail correct tuner
chordsukulelecavacokeyboardtabbassdrumsharmonicaflute Guitar Pro
close

there isn't a video lesson for this song

chords

Minister Of Rock N Roll

	  		
(Verse in C x 6 including 2x for intro with no vox) 

e|-----------------------------------------------------------------------------| 
B|-----------------------------------------------------------------------------| 
G|-----------------------------------------------------------------------------| 
D|---2/4--4--4--4--------------------------------------------------------------| 
A|-2--2--2--2--2--5--3--0------------------------------------------------------| 
D|----------------5--3--0------------------------------------------------------| 

Pre Chorus (Only solution is a revolution) 

e|---------------------------------------------------------------------------| 
B|---------------------------------------------------------------------------| 
G|---------------------------------------------------------------------------| 
D|---3--3--3--3--------------------------------------------------------------| 
A|-1--1--1--1---3--1--0------------------------------------------------------| 
D|--------------3--1--0------------------------------------------------------| 

Chorus ? (We need a minister) 

e|---------------------------------------------------------------------------| 
B|---------------------------------------------------------------------------| 
G|---------------------------------------------------------------------------| 
D|---5--5--5--5--3--3--3--3--------------------------------------------------| 
A|-3--3--3--3---1--1--1--1---3--1--0-----------------------------------------| 
D|---------------------------3--1--0-----------------------------------------| 

Bridge Section with galloping drums ? Repeat x 4 

e|---------------------------------------------------------------------------| 
B|---------------------------------------------------------------------------| 
G|---------------------------------------------------------------------------| 
D|---------------------------------------------------------------------------| 
A|---------------------------------------------------------------------------| 
D|-----0--0--0--0--0--5--3--0------------------------------------------------| 

Solo 

Solo Outro Climb 
e|---------------------------------------------------------------------------| 
B|---------------------------------------------------------------------------| 
G|---------------------------------------------------------------------------| 
D|---------------------------------------------------------------------------| 
A|---------------------------------------------------------------------------| 
E|--3-----5-----8----10---12--14--15-----------------------------------------| 


Rock N Roll Anthem x 4 

e|-----------------------------------------------------------------------------| 
B|-----------------------------------------------------------------------------| 
G|-----------------------------------------------------------------------------| 
D|---------9----9-----9--------------------------------------------------------| 
A|-----7----7------7-----------------------------------------------------------| 
E|-----------------------------------------------------------------------------| 


e|---------------------------------------------------------------------------| 
B|---------------------------------------------------------------------------| 
G|---------------------------------------------------------------------------| 
D|---------------------------------------------------------------------------| 
A|--10-12---10--12--10--12---10--12------7--9--7--9--7----5--7--5--7--5--7---| 
E|--10-12---10--12--10--12---10--12------7--9--7--9--7----5--7--5--7--5--7---| 


e|---------------------------------------------------------------------------| 
B|---------------------------------------------------------------------------| 
G|---------------------------------------------------------------------------| 
D|---------------------------------------------------------------------------| 
A|--3-5--3-5--3--5--3--5--5---3--5--0---0----3--0----------------------------| 
E|--3-5--3-5--3--5--3--5---3--5--0---0--3--5---------------------------------| 

 
		  

Full key step upFull key step up
Half key step upHalf key step up
Half key step downHalf key step down
Full key step downFull key step down
hide glossary

See also:

tabs Deep Purple - Smoke on the water (ver. 3) tabs Albert Hammond Jr - Holiday tabs Deep Purple - When a Blind man cries tabs Deep Purple - The Unwritten Law tabs Deep Purple - Highway Star tabs Ira! - Núcleo Base ( Acústico MTV)
e-chords

Other versions:

tabs Dirty Wolves - Minister Of Rock N Roll
auto scroll beats size up size down change color hide chords drawings
tab show chords e-chords YouTube Clip e-chords hide all tabs e-chords go to top tab

share