Dirty Green Vinyl

Lipstick Warrior

Dirty Green Vinyl

tabs

by  RENEJUNIOR

save to print version add songbook text version e-mail correct tuner
chordsukulelecavacokeyboardtabbassdrumsharmonicaflute Guitar Pro
close

there isn't a video lesson for this song

chords

Lipstick Warrior

	  		



Chords Used: 
    D     D5   C#5    B5    Bm    A5    G5    G     D*    G#5    A 
e|--5-----------------------2-----------------3-----10-----------5--| 
B|--7-----------------------3-----------------3-----10-----------5--| 
G|--7-----7-----6-----4-----4-----------------4-----11-----------6--| 
D|--7-----7-----6-----4-----4-----7-----5-----5-----12-----6-----7--| 
A|--5-----5-----4-----2-----2-----7-----5-----5-----12-----6-----7--| 
E|--------------------------------5-----3-----3-----10-----4-----5--| 


************************************ 

| h        hammer-on 
| /        slide up 
| (chord)  passing note 

************************************ 



Intro: 
                                D 
e|------------------------------5-5-5-5-5-5-5-5-5-5-5-5-5--| 
B|--10h12-10--------------------7-7-7-7-7-7-7-7-7-7-7-7-7--| 
G|-----------11--9--7h9-7-------7-7-7-7-7-7-7-7-7-7-7-7-7--| 
D|------------------------9--7--7-7-7-7-7-7-7-7-7-7-7-7-7--|     (x2) 
A|------------------------------5-5-5-5-5-5-5-5-5-5-5-5-5--| 
E|---------------------------------------------------------| 


   D5  C#5  B5  Bm                  B5  A5  G5  G           A5  A           D* 
e|--------------2---2---2---2---2---------------3---3---3-------5---5---5---10--| 
B|--------------3---3---3---3---3---------------3---3---3-------5---5---5---10--| 
G|--7---6---4---4---4---4---4---4---4-----------4---4---4-------6---6---6---11--| 
D|--7---6---4---4---4---4---4---4---4---7---5---5---5---5---7---7---7---7---12--| 
A|--5---4---2---2---2---2---2---2---2---7---5---5---5---5---7---7---7---7---12--| 
E|--------------------------------------5---3---3---3---3---5---5---5---5---10--| 



Verse: 

   Romanticise with the fallen I 
D* 
   Romanticise with the fallen I 
     Bm 
Woah I 
     G    A    D* 
Woah I,   I,   I 



Chorus: 
              Bm 
I don't blame you 
              G 
I don't blame you 
  A            
I don't blame you 

                                D 
e|------------------------------5-5-5-5-5-5-5-5-5-5-5-5-5--| 
B|--10h12-10--------------------7-7-7-7-7-7-7-7-7-7-7-7-7--| 
G|-----------11--9--7h9-7-------7-7-7-7-7-7-7-7-7-7-7-7-7--| 
D|------------------------9--7--7-7-7-7-7-7-7-7-7-7-7-7-7--|     (x2) 
A|------------------------------5-5-5-5-5-5-5-5-5-5-5-5-5--| 
E|---------------------------------------------------------| 

              Bm 
And I don't blame you 
              G 
I don't blame you 
  A           D* 
I don't blame you 



Verse: 

D* 
   She fell in love with a foreigner 
D* 
   She fell in love with a foreigner 
             Bm 
But it wasn't me 
          G 
It wasn't me 
   A      D* 
It wasn't me 



Chorus: 
                  Bm 
And I don't blame you 
              G 
I don't blame you 
  A            
I don't blame... 



MIDDLE 8: 

...you 
e|-------------------------------------------------------------| 
B|-------------------------------------------------------------| 
G|-------------------------------------------------------------| 
D|-------------------------------------------------------------| 
A|-4/5-5-5--5-5-5-4/5-5-5--5-5-5-4/5-5-5--5-5-5-4/5-5-5--5-5-5-| 
E|-------------------------------------------------------------| 


   The  lipstick  warrior   sold   love  to  a  foreigner who's never   that   English... 
e|--------------------------------------------------------------------------------------------| 
B|--------------------------------------------------------------------------------------------| 
G|--------------------------------------------------------------------------------------------| 
D|--------------------------------------------------------------------------------------------| 
A|-4/5-5-5--5-5-5-4/5-5-5--5-5-5-4/5-5-5--5-5-5-4/5-5-5--5-5-5--------------------------------| 
E|--------------------------------------------------------------3-3-3-3--3-3-3-5-5-5-5--5-5-5-| 

...pound 
e|-------------------------------| 
B|-------------------------------| 
G|-------------------------------| 
D|-------------------------------| 
A|-4/5-5-5--5-5-5-4/5-5-5--5-5-5-| 
E|-------------------------------| 


   The  lipstick  warrior   sold   love  to  a  foreigner who's never   that   English... 
e|--------------------------------------------------------------------------------------------| 
B|--------------------------------------------------------------------------------------------| 
G|--------------------------------------------------------------------------------------------| 
D|--------------------------------------------------------------------------------------------| 
A|-4/5-5-5--5-5-5-4/5-5-5--5-5-5-4/5-5-5--5-5-5-4/5-5-5--5-5-5--------------------------------| 
E|--------------------------------------------------------------3-3-3-3--3-3-3-5-5-5-5--5-5-5-| 

...pound                  She was... 
e|-------------------------------| 
B|-------------------------------| 
G|-------------------------------| 
D|-------------------------------| 
A|-4/5-5-5--5-5-5-4/5-5-5--5-5-5-| 
E|-------------------------------| 


           G5                 A5 
        ...never that English pound 
A5  (G#5)  G5                 A5 
She  was   never that English pound 
A5  (G#5)  G5                 A5 
She  was   never that English pound 
A5  (G#5)  G                   A  
Just  a    penny I found on the ground, oh... 



Bridge: 
                                D 
e|------------------------------5-5-5-5-5-5-5-5-5-5-5-5-5--| 
B|--10h12-10--------------------7-7-7-7-7-7-7-7-7-7-7-7-7--| 
G|-----------11--9--7h9-7-------7-7-7-7-7-7-7-7-7-7-7-7-7--| 
D|------------------------9--7--7-7-7-7-7-7-7-7-7-7-7-7-7--| 
A|------------------------------5-5-5-5-5-5-5-5-5-5-5-5-5--| 
E|---------------------------------------------------------| 



Chorus: 
              Bm 
And I don't blame you 
              G 
I don't blame you 
  A           D* 
I don't blame you 

              Bm 
And I don't blame you 
              G 
I don't blame you 
  A           D* 
I don't blame you 

              Bm 
And I don't blame you 
              G 
I don't blame you 
  A           D* 
I don't blame you 
		  

Full key step upFull key step up
Half key step upHalf key step up
Half key step downHalf key step down
Full key step downFull key step down
auto scroll beats size up size down change color hide chords drawings
tab show chords e-chords YouTube Clip e-chords hide all tabs e-chords go to top tab

share