Dire Straits

home > Dire Straits

Your Latest Trick sax Part Tab

Dire Straits

Difficulty: AdvancedAdvanced

tuner correct add songbook print version text version save to e-mail
chordsukulelecavacokeyboardtabbassdrumsharmonicsflute Guitar Pro
chords

Your Latest Trick sax Part

  		| repeat to other | 
 
e-------|-------------------------------------- 
b---4-5-|--4---4-5-7--5-4-------7-5------------ 
g--6----|---6-6----------6-4--4-----6---------- 
d-6-----|-6------------------------------------ 
a-------|-------------------------------------- 
e-------|-------------------------------------- 
 
e-------------4-------4---5-4---------|-------- 
b--7--4------4--7-5-7---------7-5-4-5-|-------- 
g-6-6--4--4-5-----------5-------------|-------- 
d-------------------------------------|-------- 
a-------------------------------------|-------- 
e-------------------------------------|-------- 
 
BY RORY IRVINE 
	  

Search Paypal
auto scroll beats size up size down change color hide chords drawings
tab show chords e-chords YouTube Clip e-chords hide all tabs e-chords go to top tab