Dire Straits

home > Dire Straits

Your Latest Trick Main Sax Part Tab

Dire Straits

Difficulty: BeginnerBeginner

tuner correct add songbook print version text version save to e-mail
chordsukulelecavacokeyboardtabbassdrumsharmonicsflute Guitar Pro
chords

Your Latest Trick Main Sax Part

  		You will have to listen to the song to get the timing right 
 
 
E------------------------------------------------------------------------ 
B------------------------------------------------------------------------ 
G------------------------------------11-------------------11------------- 
D-----11--13--14--13--11--11--13--14-----14--13--11----------14--11------ 
A---11----------------------------------------------14--14-----------13-- 
E------------------------------------------------------------------------ 
 
 
E----------------------------------------------------------------------- 
B----------------------------------------------------------------------- 
G------11-------------------------13---------------13--14--13----------- 
D---11----11------13-----------13------16--14--16----------------------- 
A---------------------14----15------------------------------------------ 
E----------------------------------------------------------------------- 
-- 
	  

Search Paypal
auto scroll beats size up size down change color hide chords drawings
tab show chords e-chords YouTube Clip e-chords hide all tabs e-chords go to top tab