Dire Straits

home > Dire Straits

You Latest Trick (Sax Solo) Tab

Dire Straits

Difficulty: AdvancedAdvanced

by thiagorangel

tuner correct add songbook print version text version save to e-mail
chordsukulelecavacokeyboardtabbassdrumsharmonicsflute Guitar Pro
chords

You Latest Trick (Sax Solo)

  		E------------------------------------------------------------------------  
B------------------------------------------------------------------------  
G------------------------------------05-------------------05-------------  
D-----05--07--08--07--05--05--07--08-----08--07--05----------08--07--05--  
A---05----------------------------------------------08--08---------------  
E------------------------------------------------------------------------  
 
 
 
 
E-----------------------------------------------------------------------  
B-----------------------------------------------------------------------  
G------05-------------------------07---------------07--08--07-----------  
D---05----05------07-----------07------10--08-10-----------------------  
A---------------------08----09------------------------------------------  
E-----------------------------------------------------------------------  
 
 
 
E------------------------------------------------------------------------  
B------------------------------------------------------------------------  
G------------------------------------05-------------------05-------------  
D-----05--07--08--07--05--05--07--08-----08--07--05----------08--07--05--  
A---05----------------------------------------------08--08---------------  
E------------------------------------------------------------------------  
 
 
 E-----------------------------------------------------------------------  
B-----------------------------------------------------------------------  
G------05-------------------------07---------------07--08--07---05------  
D---05----05------07-----------07------10--08-10-----------------------  
A---------------------08----09------------------------------------------  
E-----------------------------------------------------------------------  
	  

Search Paypal
auto scroll beats size up size down change color hide chords drawings
tab show chords e-chords YouTube Clip e-chords hide all tabs e-chords go to top tab