Dire Straits

home > Dire Straits

Sultans of Swing (cd ao vivo alchemy) Tab

Dire Straits

Difficulty: ExpertExpert

by Escolhido

tuner correct add songbook print version text version save to e-mail
chordsukulelecavacokeyboardtabbassdrumsharmonicsflute Guitar Pro
chords

Sultans of Swing (cd ao vivo alchemy)

  		 
SOLO 1:  at 3:22 of cd alchemy 
 
---------------------------------|-------10--12~(13)--10---------10--12--13--12------| 
-13-------13---13---13-----------|----11-----------------10----10---------------13---| 
-12~(14)-(14)-(14)-(14)~12-10-12-|-10-----------------------10--------------------12-| 
---------------------------------|---------------------------------------------------| 
---------------------------------|---------------------------------------------------| 
---------------------------------|---------------------------------------------------| 
 
---------------------------|--|-13^10--10-----------------|-------------------------------|-12-------------| 
-----11-10>8---------------|--|-----------10--13^10----10-|-------------------------------|----13----13----| 
---x---------10^9--7^5-----|--|---------------------12----|---------------------10^9----9-|-------12----12-| 
-x---------------------8^7-|--|---------------------------|-----------10^11^12-------12---|----------------| 
---------------------------|--|---------------------------|-10^11^12----------------------|----------------| 
---------------------------|--|---------------------------|-------------------------------|----------------| 
 
---------13--------13--------13--------13--------13--------13-13~(15)--13~(15)~13--12^10--------------| 
-13~(15)---13~(15)---13~(15)---13~(15)---13~(15)---13~(15)--------------------------------13-10-------| 
------------------------------------------------------------------------------------------------12^10-| 
------------------------------------------------------------------------------------------------------| 
------------------------------------------------------------------------------------------------------| 
------------------------------------------------------------------------------------------------------| 
 
--------|----------5-------|----------------------5---------------|-------|----------------| 
--------|------6^5---5-8---|------6^5---------------5-5^6-5-------|-6-5-3-|-6-6-5-----10-8-| 
-9^10^9-|----7-----------7-|----7-------5-7-7~(9)-----------7-5-7-|-7-5-3-|-7-7-5-----10-9-| 
--------|->7---------------|->7-------5---------------------------|-7-5-3-|-------5>7------| 
--------|------------------|--------------------------------------|-------|----------------| 
--------|------------------|--------------------------------------|-------|----------------| 
 
-------------------|-------------------------| 
-10^8----8---------|-------5^6^5-------------| 
------10---10----7-|-7~(9)-------5^7^5-------| 
--------------10---|-------------------7^6^5-| 
-------------------|-------------------------| 
-------------------|-------------------------| 
 
SOLO 2: 4:48 
 
---------|-----------------------------|----------------|---------------------|----------------| 
-13------|-----------------------------|----------------|---------------------|-10^8------8----| 
-12~(14)-|-12-12-12-12-x-10----12~(14)-|-9^12^9--7^9^7--|-5^7^5---------------|------10-7---10-| 
---------|------------------12---------|----------------|-------5^7^5---------|----------------| 
---------|-----------------------------|----------------|-------------5^7^5-3-|----------------| 
---------|-----------------------------|----------------|---------------------|----------------| 
 
-------10--12^10----10-|---10-12^10--10-|-----10-12^10---------------------------|--------------------| 
----13-----------13----|--x----------13-|---x----------13-13-------13---13---13--|----------10^13^10--| 
-12--------------------|-x--------------|-x---------------12~(14)-(14)-(14)-(14)-|-10^12--------------| 
-----------------------|----------------|----------------------------------------|--------------------| 
-----------------------|----------------|----------------------------------------|--------------------| 
-----------------------|----------------|----------------------------------------|--------------------| 
 
----------------------|----------------|---------------------------|------------------------|-----------| 
----------------------|-----10---------|----------10-11-10---------|------------------------|-----------| 
-12^10----10^12-12-12-|---x----12-10-9-|----10^12----------12-10-9-|-7~(9)-7-5^7--7~(10)--7-|-7~(9)-7^5-| 
-------12-------------|-x--------------|-12------------------------|------------------------|-7~(9)-7^5-| 
----------------------|----------------|---------------------------|------------------------|-----------| 
----------------------|----------------|---------------------------|------------------------|-----------| 
 
----------|-----8-x-7------------------------|-----------------|-----------------|------------------------| 
----------|---x-------10-8-x-8-6-------------|-5---5^6---6---5-|-------3^6-3---3-|-6~(8)-6~(8)-5^6^8-5----| 
-------5--|-x--------------------7-x-7-7-7-7-|-5-x-5-----5---5-|-5~(7)-------5---|---------------------5--| 
-7--------|----------------------------------|-----------------|-----------------|------------------------| 
---7^8----|----------------------------------|-----------------|-----------------|------------------------| 
----------|----------------------------------|-----------------|-----------------|------------------------| 
 
 
-----------|-----------------------------3----------3-----------3-|-5^3-----5^3-----5^3-----5^3-----| 
-5^6-5-3^5-|-3-------3-------6^3-------3---------3------------3---|-----6^3-----6^3-----6^3-----6^3-| 
-----------|---5~(7)---5~(7)-----5~(7)-----5~(7)--------5~(7)-----|---------------------------------| 
-----------|------------------------------------------------------|---------------------------------| 
-----------|------------------------------------------------------|---------------------------------| 
-----------|------------------------------------------------------|---------------------------------| 
 
------------------3---------3--------3---|-------------------------------------| 
-------3-6^3----3---6^3---3---6^3--3-----|-x-3~(5)~3-1-0-----------------------| 
-5~(7)--------5---------5--------------5-|---------------2-0---------------3---| 
-----------------------------------------|-------------------3-0-------3^5---5-| 
-----------------------------------------|-----------------------3^4^5---------| 
-----------------------------------------|-------------------------------------| 
 
----------------------------------------------------------| 
----------------------------------------------------------| 
----------------------------------------------------------| 
-0-x-0--x-0-3--0-x-3--0-x-3--0-x-3--0-x-3--0-x-3--0-x-3---| 
----------------------------------------------------------| 
----------------------------------------------------------| 
 
-------------------------------|---------| 
-------------------------------|---------| 
------------5----------5-----5-|-7^5---5-| 
-0-x-0^5-x--0-x-0^5--0-x-0^5---|-----7---| 
-------------------------------|---------| 
-------------------------------|---------| 
 
---------------------------------------------------------| 
---------------------------------------------------------| 
---------------------------------------------------------| 
-0-x-0-x-0-3--0-x-3--0-x-3--0-x-3--0-x-3--0-x-3--0-x-3---| 
---------------------------------------------------------| 
---------------------------------------------------------| 
 
-------------------------------|---------------|-------------------| 
-------------------------------|---------------|---8^6----8^6----6-| 
------------5----------5-----5-|-7^5---7~(9)-7-|-7------7------7---| 
-0-x-0^5-x--0-x-0^5--0-x-0^5---|-----7---------|-------------------| 
-------------------------------|---------------|-------------------| 
-------------------------------|---------------|-------------------| 
 
-------------------------------------------------|------------------|-----8-10----10>12---| 
-8-------8--------8------------8-----8-----8-----|--------------6---|---------------------| 
-7~(9)--(9)~7--5--7~(9)--7--5--7~(9)-7~(9)-7~(9)-|-------7--------7-|-7>9------10------12-| 
-------------------------------------------------|-5^7-7---5--7-----|---------------------| 
-------------------------------------------------|------------------|---------------------| 
-------------------------------------------------|------------------|---------------------| 
 
-12~(13)-----------------| 
---------13-10--13~(15)--| 
-------------------------| 
-------------------------| 
-------------------------| 
-------------------------| 
 
SOLO 3: 6:52 
----------------------|---------------------------------|-----------|----------------------| 
-------10----------10-|----------11~-10-------10--------|-----------|-------10----------10-| 
-10^12----12-10-------|-12-10-----------12-10----12-12--|-12^10^12--|-10^12----12-10-------| 
----------------12----|-------12------------------------|-----------|----------------12----| 
----------------------|---------------------------------|-----------|----------------------| 
----------------------|---------------------------------|-----------|----------------------| 
 
------------------------|----------------------|----------------------|--------------------------------------| 
----------11-10---------|----------------------|-------10----------10-|-10---------------11-10-----------10--| 
-12-10----------12-10-9-|-9^10^12--10--9^10^12-|-10^12----12-10-------|-----12-10----------------12^10-------| 
-------12---------------|----------------------|----------------12----|--------------12----------------------| 
------------------------|----------------------|----------------------|--------------------------------------| 
------------------------|----------------------|----------------------|--------------------------------------| 
 
----------------|-8----------------------------|-10-------10----------|----------------| 
----------------|-8-10-------10----------13-11-|----13^11----13-------|----8-10^8------| 
-12---12^10^12--|------10-------12-10----------|----------------12-12-|-10--------10-7-| 
----------------|---------12----------12-------|----------------------|----------------| 
----------------|------------------------------|----------------------|----------------| 
----------------|------------------------------|----------------------|----------------| 
 
SOLO 4: 7:33 
 
-----------------|------------|-----------------------| 
----8-10^8----10-|-10^8----11-|----8-10^8----8-8----8-| 
-10--------10----|------10----|-10--------10-----10---| 
-----------------|------------|-----------------------| 
-----------------|------------|-----------------------| 
-----------------|------------|-----------------------| 
 
-----------------|------------|-10^8^10--8------|-13-12-------| 
----8-10^8----10-|-10^8----11-|------------8-8--|-------13----| 
-10--------10----|------10----|-----------------|----------12-| 
-----------------|------------|-----------------|-------------| 
-----------------|------------|-----------------|-------------| 
-----------------|------------|-----------------|-------------| 
 
-----------------|------------|-----------------------|-8-| 
----8-10^8----10-|-10^8----11-|----8-10^8----8-8----8-|-8-| 
-10--------10----|------10----|-10--------10-----10---|---| 
-----------------|------------|-----------------------|---| 
-----------------|------------|-----------------------|---| 
-----------------|------------|-----------------------|---| 
 
-----------------|-------------|-10^8^10-8-----|-------------| 
----8-10^8----10-|-10^8----11--|-----------8-8-|-8~(10)~8----| 
-10--------10----|------10-----|---------------|----------10-| 
-----------------|-------------|---------------|-------------| 
-----------------|-------------|---------------|-------------| 
-----------------|-------------|---------------|-------------| 
 
-----------------|------------|-----------------------|-8-| 
----8-10^8----10-|-10^8----11-|----8-10^8----8-8----8-|-8-| 
-10--------10----|------10----|-10--------10-----10---|---| 
-----------------|------------|-----------------------|---| 
-----------------|------------|-----------------------|---| 
-----------------|------------|-----------------------|---| 
 
-----------------|------------|-10^8^10-8------|-13-12-------| 
----8-10^8----10-|-10^8----11-|-----------8-8--|-------13----| 
-10--------10----|------10----|----------------|----------12-| 
-----------------|------------|----------------|-------------| 
-----------------|------------|----------------|-------------| 
-----------------|------------|----------------|-------------| 
 
------------------|------------|-----------------------|-8-| 
----8-10^8----10--|-10^8----11-|----8-10^8----8-8----8-|-8-| 
-10--------10-----|------10----|-10--------10-----10---|---| 
------------------|------------|-----------------------|---| 
------------------|------------|-----------------------|---| 
------------------|------------|-----------------------|---| 
 
-----------------|------------|-10^8^10-8-----| 
----8-10^8----10-|-10^8----11-|-----------8-8-| 
-10--------10----|------10----|---------------| 
-----------------|------------|---------------| 
-----------------|------------|---------------| 
-----------------|------------|---------------| 
 
 
----10-13^10----13-10-|----10-13^10----13-10-|----10-13^10----13-12-12-|-10-13-12-12-| 
-13----------13-------|-13----------13-------|-13-----------13---------|-------------| 
----------------------|----------------------|-------------------------|-------------| 
----------------------|----------------------|-------------------------|-------------| 
----------------------|----------------------|-------------------------|-------------| 
----------------------|----------------------|-------------------------|-------------| 
 
----10-13^10----13-10-|----10-13^10---13-10-|----10-13^10----13-12-12-|-13~(15)-| 
-13----------13-------|-13----------13------|-13----------13----------|---------| 
----------------------|---------------------|-------------------------|---------| 
----------------------|---------------------|-------------------------|---------| 
----------------------|---------------------|-------------------------|---------| 
----------------------|---------------------|-------------------------|---------| 
 
----10-13^10----13-10-|----10-13^10----13-10-|----10-13^10----13-12-12-|-10-13-12-12-| 
-13----------13-------|-13----------13-------|-13----------13----------|-------------| 
----------------------|----------------------|-------------------------|-------------| 
----------------------|----------------------|-------------------------|-------------| 
----------------------|----------------------|-------------------------|-------------| 
----------------------|----------------------|-------------------------|-------------| 
 
----10-13^10----13-10-|----10-13^10----13-10-|----10-13^10----13-12-12-|-13~(15)-| 
-13----------13-------|-13----------13-------|-13----------13----------|---------| 
----------------------|----------------------|-------------------------|---------| 
----------------------|----------------------|-------------------------|---------| 
----------------------|----------------------|-------------------------|---------| 
----------------------|----------------------|-------------------------|---------| 
 
-15~(17)-15~(17)-15~(17)----|-15~(17)-15~(17)----|-15~(17)-15~(17)--15-15-|-13-12^13^15-| 
-------------------------15-|-----------------15-|------------------------|-------------| 
----------------------------|--------------------|------------------------|-------------| 
----------------------------|--------------------|------------------------|-------------| 
----------------------------|--------------------|------------------------|-------------| 
----------------------------|--------------------|------------------------|-------------| 
 
-13-15-15~(17)-15~(17)----|-15~(17)-15~(17)-x-15-x-15-x-15-|-15-13^12^13-20--------------------20-| 
-----------------------15-|--------------------------------|----------------20-18^17--17----20----| 
--------------------------|--------------------------------|-----------------------------19-------| 
--------------------------|--------------------------------|--------------------------------------| 
--------------------------|--------------------------------|--------------------------------------| 
--------------------------|--------------------------------|--------------------------------------| 
 
-20~(22)-17-20--20~(22)--|-20~(22)--17-20-20-20~(22)-|-17----17-20^17-17-|--------------| 
-------------------------|---------------------------|----17----------17-|-17-20^17--17-| 
-------------------------|---------------------------|-------------------|-----------19-| 
-------------------------|---------------------------|-------------------|--------------| 
-------------------------|---------------------------|-------------------|--------------| 
-------------------------|---------------------------|-------------------|--------------| 
 
--------------|----------------|-------------------------------------------| 
--------------|----------------|--------------------10-11^10--10-10-10-----| 
-17^19-17-17--|----------------|-10----10^12-10-10--------12------------12-| 
----------19--|-17^19^17-------|----12----------12-------------------------| 
--------------|----------20-17-|-------------------------------------------| 
--------------|----------------|-------------------------------------------| 
 
---------------------------------|----------------------------------|----------10----------------| 
-13------13------13------13------|-13------13------13-------13------|-------10----13^10----------| 
-12~(14)-12~(14)-12~(14)-12~(14)-|-12~(14)-12~(14)-12~(14)--12~(14)-|-10^12-------------12-10----| 
---------------------------------|----------------------------------|-------------------------12-| 
---------------------------------|----------------------------------|----------------------------| 
---------------------------------|----------------------------------|----------------------------| 
 
----------------------|------------------------12-12-|-10-12~(13)~12-10---------|-10---------10----------| 
----------------------|-----10------11-11~(13)-------|------------------13~(15)-|----13~(15)----13~(15)--| 
-10-12-x-12-x-12-x-12-|---x-------x------------------|--------------------------|------------------------| 
----------------------|-x-------x--------------------|--------------------------|------------------------| 
----------------------|------------------------------|--------------------------|------------------------| 
----------------------|------------------------------|--------------------------|------------------------| 
 
-10---------10---------10----------10---------|-13~(15)-13-12-------|-13~(15)-13-12----| 
----13~(15)----13~(15)----13~(15)-----13~(15)-|---------------13----|---------------13-| 
----------------------------------------------|------------------12-|------------------| 
----------------------------------------------|---------------------|------------------| 
----------------------------------------------|---------------------|------------------| 
----------------------------------------------|---------------------|------------------| 
 
-13^10----10-13^10-----10-13^10----10-13^10-----10-| 
-------10-----------10----------10-----------10----| 
---------------------------------------------------| 
---------------------------------------------------| 
---------------------------------------------------| 
---------------------------------------------------| 
 
-13^10----10-13^10----10-13^10----10-13^10----10-| 
-------11----------11----------11----------11----| 
-------------------------------------------------| 
-------------------------------------------------| 
-------------------------------------------------| 
-------------------------------------------------| 
 
-15^12----12-15^12----12-15^12----12-15^12----12-| 
-------13----------13----------13----------13----| 
-------------------------------------------------| 
-------------------------------------------------| 
-------------------------------------------------| 
-------------------------------------------------| 
 
-15^12----12-15^12----12-15^12----12-15^12----10-| 
-------13----------13----------13----------10----| 
-------------------------------------------------| 
-------------------------------------------------| 
-------------------------------------------------| 
-------------------------------------------------| 
 
-13^10----10-13^10----10-13^10----10-13^10----10-| 
-------10----------10----------10----------10----| 
-------------------------------------------------| 
-------------------------------------------------| 
-------------------------------------------------| 
-------------------------------------------------| 
 
-13^10----10-13^10----10-13^10----10-13^10----10-| 
-------11----------11----------11----------11----| 
-------------------------------------------------| 
-------------------------------------------------| 
-------------------------------------------------| 
-------------------------------------------------| 
 
-15^12----12-15^12----17-12----12-15^12----17-| 
-------13----------13-------13----------13----| 
----------------------------------------------| 
----------------------------------------------| 
----------------------------------------------| 
----------------------------------------------| 
 
-12----12-15^12----17-12----12-15-|-15~(17)-15~(17)-15~(17)-13-15--13--15~(17)-| 
----13----------13-------13-------|----------------------------------------15--| 
----------------------------------|--------------------------------------------| 
----------------------------------|--------------------------------------------| 
----------------------------------|--------------------------------------------| 
----------------------------------|--------------------------------------------| 
 
---------------------|-----------|-------|----------------|-------|-------|-------| 
-13^15^13--10^13^10--|-----------|-6-5-3-|-6-6-5-----10-8-|-6-5-3-|-3-3-3-|-3-3-3-| 
---------------------|-9^12^9----|-7-5-3-|-7-7-5-----10-9-|-7-5-3-|-3-3-3-|-3-3-3-| 
---------------------|--------10-|-------|-------5>7------|-7-5-3-|-3-3-3-|-3-3-3-| 
---------------------|-----------|-------|----------------|-------|-------|-------| 
---------------------|-----------|-------|----------------|-------|-------|-------| 
 
---|-|-|-|------------------|-----3-1^0^1-|-3-|-|-----|-8-|-10^8----8----8--10^8---8| 
-5-|-|-|-|------3-5^3---3-5-|---5---------|-5-|-|->10-|---|------10---10---------10-| 
-5-|-|-|-|----5-------5-----|-x-----------|-5-|-|-----|---|-------------------------| 
-5-|-|-|-|->5---------------|-------------|---|-|-----|---|-------------------------| 
---|-|-|-|------------------|-------------|---|-|-----|---|-------------------------| 
---|-|-|-|------------------|-------------|---|-|-----|---|-------------------------| 
 
 
|----8-|->15-13^12^10--12-|---------10--8-|---|-8-|| 
|-10---|------------------|-----------8---|---|-8-|| 
|------|------------------|-12^10^9-------|---|---|| 
|------|------------------|---------------|---|---|| 
|------|------------------|---------------|-7-|---|| 
|------|------------------|---------------|---|---|| 
 
 
É ISSO AI... UM POUCO DIFICIL, MAS NÃO IMPOSSÍVEL! 

	  

Search Paypal
auto scroll beats size up size down change color hide chords drawings
tab show chords e-chords YouTube Clip e-chords hide all tabs e-chords go to top tab