Dire Straits

home > Dire Straits

Local Hero live Tab

Dire Straits

Difficulty: AdvancedAdvanced

by gabriel101

tuner correct add songbook print version text version save to e-mail
chordsukulelecavacokeyboardtabbassdrumsharmonicsflute Guitar Pro
chords

Local Hero live

  		You could follow the introduction of Going Home and  
at this part you introduce this one...!!! 
 
 
 
starting at 1:41 
|------------------------------------------------------------------ 
|------------------10-10---------10--12--12h14p12--10-------------- 
|--2/11-11-11---11---------7/11------------------------11---------- 
|------------------------------------------------------------------ 
|------------------------------------------------------------------ 
|------------------------------------------------------------------ 
 
 
|------------------------------------------------------------------ 
|------------10--------------------------7------------------------- 
|--11p9h11-------11--9---7--9------7--9----7----------------------- 
|-------------------------------7------------7--9----9p7h9--------- 
|------------------------------------------------------------------ 
|------------------------------------------------------------------ 
 
 
|------------------------------------------------------------------ 
|------------------------10-10-----------10-10--15-15--12-12h14p12- 
|--7-7/9-9/11-11-11---11--------7-9-11----------------------------- 
|------------------------------------------------------------------ 
|------------------------------------------------------------------ 
|------------------------------------------------------------------ 
 
 
|------------------------------------------------------------------ 
|--10---------------------10------------------------7-----------7-- 
|-----11---11b---11p9h11-----11--9---7--9-----7--9----7-------7---- 
|------------------------------------------7------------7--9------- 
|------------------------------------------------------------------ 
|------------------------------------------------------------------ 
 
 
|----------------------10-10-10-9---------------------------------- 
|-------------------7-------------10-7-10-12-12p10--8p7h8--10-8-7-- 
|--9-----------7h9------------------------------------------------- 
|------9--7-------------------------------------------------------- 
|------------------------------------------------------------------ 
|------------------------------------------------------------------ 
 
 
|----------------14b--10-9----------------------------------------- 
|----------7---------------10----12-10h12p10-8-10-8-7--8--10--8---- 
|--7-----7---9----------------11----------------------------------- 
|----7-9----------------------------------------------------------- 
|------------------------------------------------------------------ 
|------------------------------------------------------------------ 
 
 
|------------------------------------------------------------------ 
|--7--------------------------------------------------------------- 
|----7------------------------------------------------------------- 
|------7/9---9--7-------------------------------------------------- 
|------------------------------------------------------------------ 
|---------------------------------------------------------------- 

	  

Search Paypal
auto scroll beats size up size down change color hide chords drawings
tab show chords e-chords YouTube Clip e-chords hide all tabs e-chords go to top tab