Dio

I Speed At Night

Dio

tabs Advanced advanced

by  DRUMMER_COMETH

save to print version add songbook text version e-mail correct tuner
chordsukulelecavacokeyboardtabbassdrumsharmonicaflute Guitar Pro
close

there isn't a video lesson for this song

chords

I Speed At Night

Year: 1984 - Album: Collection

(Dio/Bain/Appice/Campbell)

	  		I speed at Night  
From "The Last in Line" Dio (1984)  
 
                                                                             
E||---------------------|-------------------------|------------------------| 
B||---------------------|-------------------------|------------------------| 
G||---------------------|-------7--------5--------|--7--5-----5----5-------| 
D||---------------------|-------7--------5--------|--7--5-----5----5-------| 
A||------------0--0--0--|----0-----0--0-----0--0--|--------0------------0--| 
E||---------------------|-------------------------|------------------------| 
 
 
                                                        
-------------------------|----------------------------| 
-------------------------|----------------------------| 
-------7--------5--------|----------------------------| 
-------7--x-----5--x-----|--5--7--5\-2-------2--------| 
----0-----x--0-----x--0--|-------------------0--3--0--| 
-------------------------|--------------3b------------| 
 
 
                                                                            
-------------------------|------------------------|-----------------------| 
-------------------------|------------------------|-----------------------| 
-------7--------5--------|--7--5-----5----5-------|-------7--------5/-----| 
-------7--------5--------|--7--5-----5----5-------|-------7--x-----5/-----| 
----0-----0--0-----0--0--|--------0------------0--|----0-----x--0---------| 
-------------------------|------------------------|-----------------------| 
 
 
                                                                          
---------------------|-------------------------|------------------------| 
---------------------|-------------------------|------------------------| 
--0--------5---------|-------7--------5--------|--7--5-----5----5-------| 
--0------------------|-------7--x-----5--x-----|--7--5-----5----5-------| 
-----------3------0--|----0-----x--0-----x--0--|--------0------------0--| 
--3------------------|-------------------------|------------------------| 
 
 
                                                        
-------------------------|----------------------------| 
-------------------------|----------------------------| 
-------7--------5--------|----------------------------| 
-------7--x-----5--x-----|--5--7--5----------2--------| 
----0-----x--0-----x--0--|-------------------3--0--0--| 
-------------------------|-----------0--3b------------| 
 
 
                                                                             
-------------------------|------------------------|------------------------| 
-------------------------|------------------------|------------------------| 
-------7--------5--------|--7--5-----5----5-------|-------7--------5\---2--| 
-------7--x-----5--x-----|--7--5-----5----5-------|-------7--x-----5\---2--| 
----0-----x--0-----x--0--|--------0------------0--|----0-----x--0----------| 
-------------------------|------------------------|------------------------| 
 
 
                                                                       
--------------------------|--------------------|---------------------| 
--------------------------|--------------------|---------------------| 
--------------------------|--------------------|---------------------| 
--------------------------|----------x---------|------4------4----x--| 
--5--4--2--0--4--2--------|----------x---------|------4------4----x--| 
--------------------3--0--|----------x------2--|---------------------| 
 
 
                                                                          
------------------------|----------------------|------------------------| 
------------------------|----------------------|------------------------| 
------------------------|----------------------|------------------------| 
--4p-2--4--2----4-------|------4~---x--4----x--|--4--------2----4-------| 
--4--2--4--2----4-------|------4~---x--4----x--|--4p-2-----2----4----4--| 
---------------------2~-|----------------------|--------x------------2--| 
 
 
                                                                        
----------------------|------------------------|----------------------| 
----------------------|------------------------|----------------------| 
----------------------|------------------------|----------------------| 
------4----x--4----x--|--4--2--x--2----4-------|------4----x--4-------| 
------4----x--4----x--|--4--2--x--2----4----4--|------4----x--4p---2--| 
----------------------|---------------------2--|----------------------| 
 
 
                                                                            
--------------------------|----------------------|------------------------| 
--------------------------|----------------------|------------------------| 
--------------------------|----------------------|------------------------| 
--------------------------|------4----x--4----x--|--4--2--x--2----4-------| 
--5--4--2--0--4--2--------|------4----x--4----x--|--4--2--x--2----4----4--| 
--------------------5--2--|----------------------|---------------------2--| 
 
 
                                                                          
----------------------|--------------------------|----------------------| 
----------------------|--------------------------|----------------------| 
----------------------|--5--2--4p-2-----------2--|----------------------| 
------4----x--4----x--|--5--2--4p-2--4p-2-----2--|-----------x--4-------| 
------4----x--4----x--|--------------4p-2--4-----|-----------x--4-------| 
----------------------|--------------------------|------2------------2--| 
 
 
                                                                                 
------------------------|--------------------|---------------------------------| 
------------------------|--------------------|------------------------------3--| 
------------------------|--------------------|--11--11--11--11--11--11--11--2--| 
--4p-2--x--2----4-------|------4-------------|--11--11--11--11--11--11--11--0--| 
--4p-2--x--2----4----4--|------4--------4----|--9---9---9---9---9---9---9------| 
---------------------2--|---------------2----|---------------------------------| 
 
 
                                                                                 
------------------|--------------------|------------------|--------------------| 
------------------|--3--------------5--|------------------|--------------------| 
------------------|--2--------------4--|------------------|--------------------| 
------------------|--0--------------0--|------------------|--------------------| 
------------------|--------------------|------------------|--------------------| 
------------------|--------------------|------------------|--0\-------------2--| 
 
 
                                                                        
----------------------|------------------------|----------------------| 
----------------------|------------------------|----------------------| 
----------------------|------------------------|----------------------| 
------4----x--4----x--|--4p-2-----2----4-------|------4----x--4----x--| 
------4----x--4----x--|--4p-2--4--2----4-------|------4----x--4----x--| 
----------------------|---------------------2~-|----------------------| 
 
 
                                                                             
------------------------|-------------------------|------------------------| 
------------------------|-------------------------|------------------------| 
------------------------|-------7--------5--------|--7p-5-----5----5-------| 
--4---------------------|-------7--x-----5--x-----|--7p-5-----5----5-------| 
--4----4----4--5--6--0--|----0-----x--0-----x--0--|--------0------------0--| 
-------2----2--3--4-----|-------------------------|------------------------| 
 
 
                                                        
-------------------------|----------------------------| 
-------------------------|----------------------------| 
-------7--------5--------|----------------------------| 
-------7--x-----5--x-----|--5--7--5----------2--------| 
----0-----x--0-----x--0--|-------------------3--0--0--| 
-------------------------|-----------0--3b------------| 
 
 
                                                                              
-------------------------|------------------------|-------------------------| 
-------------------------|------------------------|-------------------------| 
-------7--------5--------|--7--5-----5----5-------|-------7--------5--------| 
-------7--x-----5--x-----|--7--5-----5----5-------|-------7--x-----5--x-----| 
----0-----x--0-----x--0--|--------0------------0--|----0-----x--0-----x--0--| 
-------------------------|------------------------|-------------------------| 
 
 
                                                           
-----------------------------------|---------------------| 
-----------------------------------|---------------------| 
--4--2--0--4--2--0-----------------|---------------------| 
--------------------4--2--0--0-----|------4------4----x--| 
-----------------------------------|------4------4----x--| 
--------------------------------2~-|---------------------| 
 
 
                                                                            
------------------------|----------------------|--------------------------| 
------------------------|----------------------|--------------------------| 
------------------------|----------------------|--5--2-----2-----------2--| 
--4p-2--4--2----4-------|------4~---x--4----x--|--5--2--4--2-----2-----2--| 
--4--2--4--2----4-------|------4~---x--4----x--|--------------4--2--4-----| 
---------------------2~-|----------------------|--------------------------| 
 
 
                                                                        
----------------------|------------------------|----------------------| 
----------------------|------------------------|----------------------| 
----------------------|------------------------|----------------------| 
-----------x--4-------|--4--2--x--2----4-------|------4----x--4-------| 
-----------x--4-------|--4--2--x--2----4----4--|------4----x--4p---2--| 
------2------------2--|---------------------2--|----------------------| 
 
 
                                                                            
--------------------------|----------------------|------------------------| 
--------------------------|----------------------|------------------------| 
--------------------------|----------------------|------------------------| 
--------------------------|------4----x--4----x--|--4--2--x--2----4-------| 
--5--4--2--0--4--2--------|------4----x--4----x--|--4--2--x--2----4----4--| 
--------------------5--2--|----------------------|---------------------2--| 
 
 
                                                                          
----------------------|--------------------------|----------------------| 
----------------------|--------------------------|----------------------| 
----------------------|--5--2--4p-2-----------2--|----------------------| 
------4----x--4----x--|--5--2--4p-2--4p-2-----2--|-----------x--4-------| 
------4----x--4----x--|--------------4p-2--4-----|-----------x--4-------| 
----------------------|--------------------------|------2------------2--| 
 
 
                                                                                 
------------------------|--------------------|---------------------------------| 
------------------------|--------------------|------------------------------3--| 
------------------------|--------------------|--11--11--11--11--11--11--11--2--| 
--4p-2--x--2----4-------|------4-------------|--11--11--11--11--11--11--11--0--| 
--4p-2--x--2----4----4--|------4--------4----|--9---9---9---9---9---9---9------| 
---------------------2--|---------------2----|---------------------------------| 
 
 
                                                                                 
------------------|--------------------|------------------|--------------------| 
------------------|------------5----5--|------------------|-----------------7--| 
------------------|------------4----4--|------------------|-----------------6--| 
------------------|-----------------0--|------------------|------------0----0--| 
------------------|--------------------|------------------|--------------------| 
------------------|--------------------|------------------|--------------------| 
 
 
                                                                                
------------------|-------------------|------------------|--------------------| 
------------------|-------------------|------------------|--------------------| 
------------------|-------------------|------------------|--------------------| 
------------------|----------------6--|------------------|--------------------| 
------------------|----------------7--|------------------|--------------------| 
------------------|-------------------|------------------|--0\-------------2~-| 
 
 
                                                                        
----------------------|------------------------|----------------------| 
----------------------|------------------------|----------------------| 
----------------------|------------------------|----------------------| 
------4----x--4----x--|--4p-2-----2----4-------|------4----x--4----x--| 
------4----x--4----x--|--4p-2--4--2----4-------|------4----x--4----x--| 
----------------------|---------------------2~-|----------------------| 
 
 
                                                                          
------------------------|----------------------|------------------------| 
------------------------|----------------------|------------------------| 
------------------------|----------------------|------------------------| 
--4p-2-----2----4-------|------4----x--4----x--|--4p-2-----2----4-------| 
--4p-2--4--2----4-------|------4----x--4----x--|--4p-2--4--2----4----2--| 
---------------------2~-|----------------------|------------------------| 
 
 
                                                                        
----------------------|--------------------------|--------------------| 
----------------------|--------------------------|----------------14--| 
----------------------|--------------------------|--------------------| 
------4----x--4-------|--------------------------|--------------------| 
------4----x--4----2--|--5--4--2--0--4--2--0-----|--------------------| 
----------------------|-----------------------0--|--------------------| 
 
 
                                                    
--------------------------------------------------| 
--17--14------14-17-14----14--17--14------14------| 
----------17-----------17-------------17------17--| 
--------------------------------------------------| 
--------------------------------------------------| 
--------------------------------------------------| 
 
 
                                                    
--------------------------------------------------| 
------14--17p-14------14--17--14------14-17-14----| 
--17--------------17--------------17-----------17-| 
--------------------------------------------------| 
--------------------------------------------------| 
--------------------------------------------------| 
 
 
                                               
-----------------14--17--14------------------| 
--14--17--14--x------------------14--17--14--| 
-----------------------------17--------------| 
---------------------------------------------| 
---------------------------------------------| 
---------------------------------------------| 
 
 
                                               
----14-17-14-------------------14------------| 
-----------------14-17-14----------17-14-----| 
--x----------17------------17------------17--| 
---------------------------------------------| 
---------------------------------------------| 
---------------------------------------------| 
 
 
                                              
--------------------------------------------| 
--14-17-14----------------------------------| 
------------16--16-16r--14------16p-14------| 
----------------------------16----------16--| 
--------------------------------------------| 
--------------------------------------------| 
 
 
                                                                             
--------------------------------------|------------------------------------| 
--------------------------------------|------------------------------------| 
--14--16------16-14-----16-14-----14r-|----16--14b-------------------------| 
----------17------------------16------|------------16--14------------------| 
--------------------17----------------|--------------------16--15\14-12----| 
--------------------------------------|---------------------------------14-| 
 
 
                                                                   
-------------------------|-------------------|-------------------| 
-------------------------|-------------------|-------------------| 
----------------------4b-|------4------------|--4----------------| 
-------------------------|-------------------|-------------------| 
--14--12/---15-----------|-------------------|-------------------| 
-------------------------|-------------------|-------------------| 
 
 
                                                  
-------------------|----------------------------| 
-------------------|----------------------------| 
--4----------------|--4b---2------------2-4-2-4/| 
-------------------|----------4--4~-------------| 
-------------------|----------------------------| 
-------------------|----------------------------| 
 
 
                                                                      
---------------------------------|----------------------------------| 
---------------------------------|----------------------------------| 
--6--4-6-4\-3--4--2--4-3/4-6-4-6-|--4\-3--4--2-4-2/3----4-6-4-6/7-6-| 
---------------------------------|-------------------6--------------| 
---------------------------------|----------------------------------| 
---------------------------------|----------------------------------| 
 
 
                                                                               
-----------------------------------|-----------------------------------------| 
-----------------------------------|------9-10-12-10-9-12-9--10p-9-------17r-| 
--7-6---9--7-9-7/-8--11--9--11--9--|--11------------------------------x------| 
-----------------------------------|----------------------------------x------| 
-----------------------------------|-----------------------------------------| 
-----------------------------------|-----------------------------------------| 
 
 
                                                   
----------------------|----------------------15--| 
--------------14--17b-|--------14--17b-17--------| 
----------------------|--------------------------| 
----------------------|--------------------------| 
----------------------|--------------------------| 
----------------------|--------------------------| 
 
 
                                                                            
----------------------------------------------|---------------------------| 
--14-15-14----14------------------------------|---------------------------| 
------------------16--14\-13--11--14--12------|--11--9r---------8--9--11--| 
-----------15-----------------------------14--|---------------------------| 
----------------------------------------------|---------------------------| 
----------------------------------------------|---------------------------| 
 
 
                                          
----------------------------------------| 
----------------------------------------| 
--11--0-0-11--11--11--0--11--11--11--0--| 
----------------------------------------| 
----------------------------------------| 
----------------------------------------| 
 
 
                                                                             
------------------------------------------|--------------------------------| 
------------------------------------------|----------14--------14--14--14--| 
--11--11--11-----11-11-11-----11--11--11--|--11--11--11--------11--11--11--| 
------------------------------11--11--11--|--11--11------------------------| 
--------------9------------9--9---9---9---|--9---9-------------------------| 
------------------------------------------|--------------------------------| 
 
 
                                                                         
-----------------------|-----------------------------------------------| 
--14\------------------|-----------------------------------------------| 
--11\------------------|---------------------------14-16-19-x-16-18-20-| 
------------x----------|--------12--15-12-14-16-18---------------------| 
------------x------12--|--14-15----------------------------------------| 
------------x----------|-----------------------------------------------| 
 
 
                                                                               
-----------------------17-19-21-19-17-16--17--|-----21--21b----21----17------| 
--17--19--21--17-19-21------------------------|--19----------------------19--| 
----------------------------------------------|------------------------------| 
----------------------------------------------|------------------------------| 
----------------------------------------------|------------------------------| 
----------------------------------------------|------------------------------| 
 
 
                                   
--17-----------------------------| 
------19----17\---5--17--17--16--| 
---------------------------------| 
---------------------------------| 
---------------------------------| 
---------------------------------| 
 
 
                                                    
--------------------------------------------------| 
--19--19--19--19-19-17-17-19--19--19--17--17--19--| 
--------------------------------------------------| 
--------------------------------------------------| 
--------------------------------------------------| 
--------------------------------------------------| 
 
 
                                                    
--------------------------------------------------| 
--19--17--15--15--17--15--14--15--14--12--14--12--| 
--------------------------------------------------| 
--------------------------------------------------| 
--------------------------------------------------| 
--------------------------------------------------| 
 
 
                                                                              
-------------------------------------------|--------------------------------| 
--12--10--12--10-10-9-9-10-10-9-9-7--9--7--|--5--7--5--4--5--4----------17--| 
-------------------------------------------|--------------------0--0--------| 
-------------------------------------------|--------------------------------| 
-------------------------------------------|--------------------------------| 
-------------------------------------------|--------------------------------| 
 
 
                                                                              
------------------|-------------------|------------------|------------------| 
------------------|-------------------|------------------|------------------| 
------------------|-------------------|------------------|------------------| 
------------------|----------x--------|------------------|------------------| 
------------------|----------x--------|------------------|------------------| 
------------------|----------x--------|------------------|------------------| 
 
 
                                                                               
------------------|------------------|------------------|--------------------| 
------------------|------------------|------------------|--------------------| 
------------------|------------------|------------------|--------------2/-4--| 
------------------|------------------|------------------|--------------------| 
------------------|------------------|------------------|--------------------| 
------------------|------------------|------------------|--------------------| 
 
 
                                                                  
------5------5--5--5--|--3--5---------------|-------------------| 
------5------5--5--5--|--3--5------------7~-|--7b---------------| 
----------------------|--0---------------7~-|--7b---------------| 
----------------------|---------------------|-------------------| 
----------------------|---------------------|-------------------| 
----------------------|---------------------|-------------------| 
 
 
                                                                  
--------------------|--------------------|----------------------| 
----------------12--|--12b---------------|--12--------------19--| 
----------------12--|--12b---------------|--12--------------19--| 
--------------------|--------------------|----------------------| 
--------------------|--------------------|----------------------| 
--------------------|--------------------|----------------------| 
 
 
                                                             
--------------------|-------------------|------------------| 
--19b---------------|-------------------|------------------| 
--19~---------------|-------------------|------------------| 
--------------------|-------------------|------------------| 
--------------------|----------------x--|------------------| 
--------------------|----------------x--|------------------| 
 
 
                                                                                 
--------------------|------------------|--------------------|------------------| 
------------5----5--|------------------|-----------------7--|------------------| 
------------4----4--|------------------|-----------------6--|------------------| 
-----------------0--|------------------|------------0----0--|------------------| 
--------------------|------------------|--------------------|------------------| 
--------------------|------------------|--------------------|------------------| 
 
 
                                                             
-------------------|------------------|--------------------| 
-------------------|------------------|--------------------| 
-------------------|------------------|--------------------| 
----------------6--|------------------|--------------------| 
----------------7--|------------------|--------------------| 
-------------------|------------------|--0\-------------2~-| 
 
 
                                                                        
----------------------|------------------------|----------------------| 
----------------------|------------------------|----------------------| 
----------------------|------------------------|----------------------| 
------4----x--4----x--|--4p-2-----2----4-------|------4----x--4----x--| 
------4----x--4----x--|--4p-2--4--2----4-------|------4----x--4----x--| 
----------------------|---------------------2~-|----------------------| 
 
 
                                                                          
------------------------|----------------------|------------------------| 
------------------------|----------------------|------------------------| 
------------------------|----------------------|------------------------| 
--4---------------------|------4----x--4----x--|--4p-2-----2----4-------| 
--4----4----4--5--6--0--|------4----x--4----x--|--4p-2--4--2----4-------| 
-------2----2--3--4-----|----------------------|---------------------2~-| 
 
 
                                                                             
----------------------|--------------------------|-------------------------| 
----------------------|--------------------------|-------------------------| 
----------------------|--------------------------|-------7--------5--------| 
------4----x--4----x--|--4--4--4--4--4--4--4--4--|-------7--x-----5--x-----| 
------4----x--4----x--|--4--4--4--4--4--4--4--4--|----0-----x--0-----x--0--| 
----------------------|--2--2--2--2--2--2--2--2--|-------------------------| 
 
 
                                                                                 
------------------------|-------------------------|----------------------------| 
------------------------|-------------------------|----------------------------| 
--7p-5-----5----5-------|-------7--------5--------|----------------------------| 
--7p-5-----5----5-------|-------7--x-----5--x-----|--5--7--5----------2--------| 
--------0------------0--|----0-----x--0-----x--0--|-------------------3--0--0--| 
------------------------|-------------------------|-----------0--3b------------| 
 
 
                                                                              
-------------------------|------------------------|-------------------------| 
-------------------------|------------------------|-------------------------| 
-------7--------5--------|--7p-5-----5----5-------|-------7--------5--------| 
-------7--x-----5--x-----|--7p-5-----5----5-------|-------7--x-----5--x-----| 
----0-----x--0-----x--0--|--------0------------0--|----0-----x--0-----x--0--| 
-------------------------|------------------------|-------------------------| 
 
 
                                                                                 
----------------------------|-------------------------|------------------------| 
----------------------------|-------------------------|------------------------| 
----------------------------|-------7--------5--------|--7p-5-----5----5-------| 
--5--7--5----------2--------|-------7--x-----5--x-----|--7p-5-----5----5-------| 
-------------------3--0--0--|----0-----x--0-----x--0--|--------0------------0--| 
-----------0--3b------------|-------------------------|------------------------| 
 
 
                                                        
-------------------------|----------------------------| 
-------------------------|----------------------------| 
-------7--------5--------|----------------------------| 
-------7--x-----5--x-----|--5--7--5----------2--------| 
----0-----x--0-----x--0--|-------------------3--0--0--| 
-------------------------|-----------0--3b------------| 
 
 
                                                                              
-------------------------|------------------------|-------------------------| 
-------------------------|------------------------|-------------------------| 
-------7--------5--------|--7p-5-----5----5-------|-------7--------5--------| 
-------7--x-----5--x-----|--7p-5-----5----5-------|-------7--x-----5--x-----| 
----0-----x--0-----x--0--|--------0------------0--|----0-----x--0-----x--0--| 
-------------------------|------------------------|-------------------------| 
 
 
                                                                                 
----------------------------|-------------------------|------------------------| 
----------------------------|-------------------------|------------------------| 
----------------------------|-------7--------5--------|--7p-5-----5----5-------| 
--5--7--5----------2--------|-------7--x-----5--x-----|--7p-5-----5----5-------| 
-------------------3--0--0--|----0-----x--0-----x--0--|--------0------------0--| 
-----------0--3b------------|-------------------------|------------------------| 
 
 
                                                        
-------------------------|----------------------------| 
-------------------------|----------------------------| 
-------7--------5--------|----------------------------| 
-------7--x-----5--x-----|--5--7--5----------2--------| 
----0-----x--0-----x--0--|-------------------3--0--0--| 
-------------------------|-----------0--3b------------| 
 
 
                                                                              
-------------------------|------------------------|-------------------------| 
-------------------------|------------------------|-------------------------| 
-------7--------5--------|--7p-5-----5----5-------|-------7--------5--------| 
-------7--x-----5--x-----|--7p-5-----5----5-------|-------7--x-----5--x-----| 
----0-----x--0-----x--0--|--------0------------0--|----0-----x--0-----x--0--| 
-------------------------|------------------------|-------------------------| 
 
 
                                                                                 
----------------------------|-------------------------|------------------------| 
----------------------------|-------------------------|------------------------| 
----------------------------|-------7--------5--------|--7p-5-----5----5-------| 
--5--7--5----------2--------|-------7--x-----5--x-----|--7p-5-----5----5-------| 
-------------------3--0--0--|----0-----x--0-----x--0--|--------0------------0--| 
-----------0--3b------------|-------------------------|------------------------| 
 
 
                                                        
-------------------------|----------------------------| 
-------------------------|----------------------------| 
-------7--------5--------|----------------------------| 
-------7--x-----5--x-----|--5--7--5----------2--------| 
----0-----x--0-----x--0--|-------------------3--0--0--| 
-------------------------|-----------0--3b------------| 
 
 
                                                                              
-------------------------|------------------------|-------------------------| 
-------------------------|------------------------|-------------------------| 
-------7--------5--------|--7p-5-----5----5-------|-------7--------5--------| 
-------7--x-----5--x-----|--7p-5-----5----5-------|-------7--x-----5--x-----| 
----0-----x--0-----x--0--|--------0------------0--|----0-----x--0-----x--0--| 
-------------------------|------------------------|-------------------------| 
 
 
                                            
--------------------|--------------------|| 
--------------------|--------------------|| 
-----------5--------|--2----2------------|| 
--5--------5--------|--2----2------------|| 
--5--------3--------|--0----0------------|| 
--3-----------------|--------------------|| 
 
 
 
 
 

		  

See also:

tabs Deep Purple - Smoke On The Water tabs Coldplay - Fix You tabs The Shadows - Apache tabs The Beatles - All You Need Is Love Acoustic tabs Dire Straits - Brothers in Arms tabs Santana - Europa
e-chords

Other versions:

tabs Dio - I Speed At Night
auto scroll beats size up size down change color hide chords drawings
tab show chords e-chords YouTube Clip e-chords hide all tabs e-chords go to top tab

share