Dimitri Vegas

Body Talk Mammoth

Dimitri Vegas

tabs

by  RENEJUNIOR

save to print version add songbook text version e-mail correct tuner
chordsukulelecavacokeyboardtabbassdrumsharmonicaflute Guitar Pro
close

there isn't a video lesson for this song

chords

Body Talk Mammoth

	  		
Two pieces: The song itself (which is the riff repetition and the drop)  
and something I pulled together following the Body Talk vocals 

Base repetition 
e|-----------------------------0----------| 
B|-----0-----0-----0-----0---0-----0-2----| 
G|-0-2---0-2---0-2---0-2---0-----0--------|   X Infinity 
D|----------------------------------------| 
A|----------------------------------------| 
E|----------------------------------------|  

Drop  
(you can alternate the 2's with 3's at the end for additional tone) 
                    
e|-0-2-3--0-00-7-5-|-5/-3/-2-2-2-2-3-2----| 
B|-----------------|----------------------| 
G|-----------------|----------------------|   X 2 
D|-----------------|----------------------| 
A|-----------------|----------------------| 
E|-----------------|----------------------|  

Drop  
(alternate key) 
e|------------------|---------------------| 
B|------------------|---------------------| 
G|------------------|---------------------|   X 2 
D|------------------|---------------------| 
A|-2-4/-5-22-2-9/-7-|-7/-5/-4-4-4-4-5-2---| 
E|----------------------------------------|  

Verse 
Everyone's a lonely lullaby 
Looking for a voice to amplify 

All the devil's dust and heat inside 
To a stadium of alibis 

e|---------------0---|---------------------| 
B|-----0---0---0---3-|-3-0-----------0-----| 
G|-0-2---2---2-------|-----2-0-2-0-2-------|   X 2 
D|-------------------|-----------------2---| 
A|-------------------|---------------------| 
E|-------------------|---------------------|  

Chorus 
And I, I wanna feel you 
And read between your lines 

e|---3-2-0-2-0--------------|-----------------| 
B|-------------3-0-00-3-0---|-----0-----------| 
G|-0----------------------2-|-0-2---2-0-2-0---| 
D|--------------------------|-----------------| 
A|--------------------------|-----------------| 
E|--------------------------|-----------------|  

And I, can never heal you 
But I promise I could try 


e|---3-2-0-2-0--------------|-----------------| 
B|-------------3-0-00-3-0---|-----0-----------| 
G|-0----------------------2-|-0-2---2-0-2-----| 
D|--------------------------|------------2----| 
A|--------------------------|-----------------| 
E|--------------------------|-----------------|  

Chorus 2 
Let me drink you heart drunk 
Let me dream your eyes shut 
Let me get your mind off 
Let me make your body talk 


Let me drink you heart drunk 
Let me dream your eyes shut 
Let me get your mind off 
Let me make your body talk 

e|-------------|-------------|-------------|-------------------| 
B|-0-0-0-0-0---|-------------|-------------|-------------------| 
G|-----------0-|-2-2-2-2-2---|-0-0-0-0-0---|-------------------|   X 2 
D|-------------|-----------4-|-----------2-|-4-4-4-4-4-2-0-2---| 
A|-------------|-------------|-------------|-------------------| 
E|-------------|-------------|-------------|-------------------|  

Drop  
(With a little personalization) 

e|-0-2-3--0-00-7-5-|-5/-3/-2-2-2-3-3-2--| 
B|-----------------|--------------------| 
G|-----------------|--------------------|   X 2 
D|-2-2-2--2-22-0-0-|-0--0--0-0-0-0-0----| 
A|-----------------|--------------------| 
E|-----------------|--------------------| 

Bridge 
I wanna feel you 
Let me make your body talk 

e|---3-2-0-2-0--------------|-----------------| 
B|-------------3-0-00-3-0---|-----------------| 
G|-0----------------------2-|-----------------| 
D|--------------------------|-4-4-4-4-4-2-0-2-| 
A|--------------------------|-----------------| 
E|--------------------------|-----------------|  

I could never heal you 
Let me make your body talk 


e|---3-2-0-2-0--------------|-----------------| 
B|-------------3-0-00-3-0---|-----------------| 
G|-0----------------------2-|-----------------| 
D|--------------------------|-4-4-4-4-4-2-0-2-| 
A|--------------------------|-----------------| 
E|--------------------------|-----------------| 

I wanna feel you 
I could never heal you 
Let me make your body talk 

e|---3-2-0-2-0--------------|---3-2-0-2-0--------------|-----------------| 
B|-------------3-0-00-3-0---|-------------3-0-00-3-0---|-----------------| 
G|-0----------------------2-|-0----------------------2-|-----------------| 
D|--------------------------|--------------------------|-4-4-4-4-4-2-0-2-| 
A|--------------------------|--------------------------|-----------------| 
E|--------------------------|--------------------------|-----------------| 

Drop 
e|-0-2-3--0-00-7-5-|-5/-3/-2-2-2-3-3-2--| 
B|-----------------|--------------------| 
G|-----------------|--------------------|   X 2 
D|-2-2-2--2-22-0-0-|-0--0--0-0-0-0-0----| 
A|-----------------|--------------------| 
E|-----------------|--------------------|  

verse 2 
I been watching you in marathons 
Every episode cliff-hanging on 

Cause you?re a queen who's never crowned upon 
And I count your fear is overdrawn 

e|---------------0---|---------------------| 
B|-----0---0---0---3-|-3-0-----------0-----| 
G|-0-2---2---2-------|-----2-0-2-0-2-------|   X 2 
D|-------------------|-----------------2---| 
A|-------------------|---------------------| 
E|-------------------|---------------------|  

Chorus 
And I, I wanna feel you 
And read between your lines 

e|---3-2-0-2-0--------------|-----------------| 
B|-------------3-0-00-3-0---|-----0-----------| 
G|-0----------------------2-|-0-2---2-0-2-0---| 
D|--------------------------|-----------------| 
A|--------------------------|-----------------| 
E|--------------------------|-----------------|  

And I, can never heal you 
But I promise I could try 


e|---3-2-0-2-0--------------|-----------------| 
B|-------------3-0-00-3-0---|-----0-----------| 
G|-0----------------------2-|-0-2---2-0-2-----| 
D|--------------------------|------------2----| 
A|--------------------------|-----------------| 
E|--------------------------|-----------------|  

Chorus 2 
Let me drink you heart drunk 
Let me dream your eyes shut 
Let me get your mind off 
Let me make your body talk 


Let me drink you heart drunk 
Let me dream your eyes shut 
Let me get your mind off 
Let me make your body talk 

e|-------------|-------------|-------------|-------------------| 
B|-0-0-0-0-0---|-------------|-------------|-------------------| 
G|-----------0-|-2-2-2-2-2---|-0-0-0-0-0---|-------------------|   X 2 
D|-------------|-----------4-|-----------2-|-4-4-4-4-4-2-0-2---| 
A|-------------|-------------|-------------|-------------------| 
E|-------------|-------------|-------------|-------------------|  

Drop 
e|-0-2-3--0-00-7-5-|-5/-3/-2-2-2-3-3-2--| 
B|-----------------|--------------------| 
G|-----------------|--------------------|   X 2 
D|-2-2-2--2-22-0-0-|-0--0--0-0-0-0-0----| 
A|-----------------|--------------------| 
E|-----------------|--------------------| 

(Quick legend, should be self explainitory, but who knows: 
/ Slides 
00/11/22 ect: quick strum 
-- Short pause) 
		  

auto scroll beats size up size down change color hide chords drawings
tab show chords e-chords YouTube Clip e-chords hide all tabs e-chords go to top tab

share