Dibob

Pela Madrugada (solo)

Dibob

tabs

by  VELHO

save to print version add songbook text version e-mail correct tuner
chordsukulelecavacokeyboardtabbassdrumsharmonicaflute Guitar Pro
close

there isn't a video lesson for this song

chords

Pela Madrugada (solo)

	  		e|-------------------------------------------------------------------------------------------| 
b|-----8---8-10/12-10/12/10-8/10-12/7-8-10-8/------8---8-7---------12/10-8-10-10-7-8-10-8/---| 
G|-7-9---9------------------------------------7-9---9------9-7-9-9---------------------------| 
D|-------------------------------------------------------------------------------------------| 
A|-------------------------------------------------------------------------------------------| 
E|-------------------------------------------------------------------------------------------| 



e|-------------------------------------------------------------------------------------| 
b|-----8------------8------12/8-10----------8--------8------------8------12/8-10-------| 
G|-7-9---9-9~-9-7-9---9-9~---------9-9~-7-9---9~-7-9---9-9~-9-7-9---9-9~---------9-9~--| 
D|-------------------------------------------------------------------------------------| 
A|-------------------------------------------------------------------------------------| 
E|-------------------------------------------------------------------------------------| 

e|-10-8-7-----------| 
b|--------8-10-8----| 
G|------------------| 
D|------------------| 
A|------------------| 
E|------------------| 



e|-----------------------------------------------------------------------------------| 
b|-----------------------------------------------------------------------------------| 
G|----------------------------------------------7-7-5-5)-7-7-5-5---------------------| 
D|------5-5-7-7-5-5)------5-5-8-8-7-7)------7-7------------------8-8-7-7-5-5---------| 
A|-(5-5--------------(5-5--------------(5-5----------------------------------4-4-----| 
E|-----------------------------------------------------------------------------------| 

e|-----------------------------------------------------------------------------------| 
b|---------------------------------------------------------------------------13^-----| 
G|----------------------------------------------7-7-5-5)-7-7-5-5---------------------| 
D|------5-5-7-7-5-5)------5-5-8-8-7-7)------7-7------------------8-8-7-7-5-5---------| 
A|-(5-5--------------(5-5--------------(5-5------------------------------------------| 
E|-----------------------------------------------------------------------------------| 

VELHO (BANDA VM's) 

		  

See also:

tabs Reação em Cadeia - Os Dias (Intro) tabs Reação em Cadeia - Até parar de bater tabs Pholhas - Reflections of my life tabs Dragon Ball - Dragon Ball Gt tabs KLB - Ela não está aqui ( solo ) tabs Roupa Nova - Meu Universo é Você (solo final)
e-chords

Other versions:

tabs Dibob - Pela Madrugada (intro) tabs Dibob - Pela Madrugada (solo)
auto scroll beats size up size down change color hide chords drawings
tab show chords e-chords YouTube Clip e-chords hide all tabs e-chords go to top tab

share