Destruction Of A King

Dirty Diana

Destruction Of A King

tabs Expert expert

by  CARLLUZ

save to print version add songbook text version e-mail correct tuner
chordsukulelecavacokeyboardtabbassdrumsharmonicaflute Guitar Pro
close

there isn't a video lesson for this song

chords

Dirty Diana

	  		Intro 
0:00-0:25 
e|---------------------------------------------------------------------------| 
B|---------------------------------------------------------------------------| 
G|---------------------------------------------------------------------------| 
D|---------------------------------------------------------------------------| 
A|---------------------------------------------------------------------------| 
E|-0--0--6--0--0--6--0--0--6--0--6--0--6-x8----------------------------------|
 
0:25-0:37 
e|---------------------------------------------------------------------------| 
B|---------------------------------------------------------------------------| 
G|---------------------------------------------------------------------------| 
D|---------------------------------------------------------------------------| 
A|---------------------------------------------------------------------------| 
E|-0--0--6--0--0--5--0--0--4--0--3--0--2--x4---------------------------------| 

0:38-0:50 
e|---------------------------------------------------------------------------| 
B|---------------------------------------------------------------------------| 
G|---------------------------------------------------------------------------| 
D|---------------------------------------------------------------------------| 
A|-0--0--6--0--0--6--0--0--6--0--6--0--6-------------------------------------| 
E|-0--0--6--0--0--6--0--0--6--0--6--0--6-x4----------------------------------| 

0:51-1:09 I made Diana go OH! <3 
Figure out strumming yourself bitch. 
e|---------------------------------------------------------------------------| 
B|---------------------------------------------------------------------------| 
G|---------------------------------------------------------------------------| 
D|--0--0--0--0--0--0--0--0--0------------------------------------------------| 
A|--0--0--0--0--0--0--0--0--0------------------------------------------------| 
E|--0--0--0--0--0--0--0--0--0------------------------------------------------|
 
1:11-1:18  
Figure strumming it out. 
e|---------------------------------------------------------------------------| 
B|---------------------------------------------------------------------------| 
G|---------------------------------------------------------------------------| 
D|-0--0--0--0--0--0--0--0--0-------------------------------------------------| 
A|-0--0--0--0--0--0--0--0--0-------------------------------------------------| 
E|-1--1--1--1--1--1--1--1--1-------------------------------------------------|
 
1:20-1:25 
e|---------------------------------------------------------------------------| 
B|---------------------------------------------------------------------------| 
G|---------------------------------------------------------------------------| 
D|--0--8--8------------------------------------------------------------------| 
A|--0--x--x------------------------------------------------------------------| 
E|--0--6--6------------------------------------------------------------------|  
		  

See also:

tabs Metallica - Ecstasy of gold tabs Megadeth - Peace Sells tabs Metallica - Seek And Destroy tabs Metallica - Master Of Puppets Solo tabs Metallica - Enter sandman (solo) tabs Metallica - Orion
e-chords

Other versions:

tabs Michael Jackson - Dirty Diana tabs Destruction Of A King - Dirty Diana
auto scroll beats size up size down change color hide chords drawings
tab show chords e-chords YouTube Clip e-chords hide all tabs e-chords go to top tab

share