Destiny's Child

Jumpin Jumpin

Destiny's Child

tabs

save to print version add songbook text version e-mail correct tuner
chordsukulelecavacokeyboardtabbassdrumsharmonicaflute Guitar Pro
close

there isn't a video lesson for this song

chords

Jumpin Jumpin

	  		e--12--12--12--12------------------------------------------------------------------------------- 
B--------------------12--12--12--13----13--13--15--12--12--12--12---12---12--12--12--13 
G---------------------------------------------------------------------------------------------------- 
D------------------------------------------------------------------------------------------------------ 
A----------------------------------------------------------------------------------------------------- 
E----------------------------------------------------------------------------------------------------- 
 
 
e---------------------12--12--12--------------------------------------------------------------------------------- 
b-12--12--12-----------------------12--12--12--13--------13--13--15---12--12--12--12--12--12-- 
G------------------------------------------------------------------------------------------------------------ 
D------------------------------------------------------------------------------------------------------------ 
A------------------------------------------------------------------------------------------------------------ 
E------------------------------------------------------------------------------------------------------------- 
		  

auto scroll beats size up size down change color hide chords drawings
tab show chords e-chords YouTube Clip e-chords hide all tabs e-chords go to top tab

share