Destine

Wait Forever

Destine

tabs

by  TERCMORAES

save to print version add songbook text version e-mail correct tuner
chordsukulelecavacokeyboardtabbassdrumsharmonicaflute Guitar Pro
close

there isn't a video lesson for this song

chords

Wait Forever

	  		
 


Intro: 
                    
e|-2-2-2----x-x-x--3-3-3----x-x-x--3-3-3----x-x-x--3-3-3----3-3-3-| 
B|-3-3-3----x-x-x--3-3-3----x-x-x--3-3-3----x-x-x--3-3-3----3-3-3-| 
G|-2-2-2----x-x-x--0-0-0----x-x-x--0-0-0----x-x-x--0-0-0----0-0-0-| 
D|-0-0-0----x-x-x--0-0-0----x-x-x--2-2-2----x-x-x--0-0-0----0-0-0-| 
A|-----------------2-2-2----x-x-x--3-3-3----x-x-x--2-2-2----2-2-2-| 
E|-----------------0-0-0----x-x-x------------------3-3-3----3-3-3-| 2x 

// You can also play the muted chords as the chords before. 


Verse: 

e|-3--------2--------3--------3--------| 
B|-3--------3--------3--------3--------| 
G|-0--------2--------0--------0--------| 
D|-0--------0--------2--------0--------| 
A|-2-----------------3--------2--------| 
E|-0--------------------------3--------| 2x 


(This could be the one last chance tonight) 
e|-3--------2--------3--------| 
B|-3--------3--------3--------| 
G|-0--------2--------0--------| 
D|-0--------0--------2--------| 
A|-2-----------------3--------| 
E|-0--------------------------| 


Chorus: 

e|-2--------3--------3--------3--------| 
B|-3--------3--------3--------3--------| 
G|-2--------0--------0--------0--------| 
D|-0--------0--------2--------0--------| 
A|----------2--------3--------2--------| 
E|----------0-----------------3--------| 2x 


Pre verse : 

e|-2-2-2----x-x-x--3-3-3----x-x-x--3-3-3----x-x-x--3-3-3----3-3-3-| 
B|-3-3-3----x-x-x--3-3-3----x-x-x--3-3-3----x-x-x--3-3-3----3-3-3-| 
G|-2-2-2----x-x-x--0-0-0----x-x-x--0-0-0----x-x-x--0-0-0----0-0-0-| 
D|-0-0-0----x-x-x--0-0-0----x-x-x--2-2-2----x-x-x--0-0-0----0-0-0-| 
A|-----------------2-2-2----x-x-x--3-3-3----x-x-x--2-2-2----2-2-2-| 
E|-----------------0-0-0----x-x-x------------------3-3-3----3-3-3-| 


Verse 2: 

e|-3--------2--------3--------3--------| 
B|-3--------3--------3--------3--------| 
G|-0--------2--------0--------0--------| 
D|-0--------0--------2--------0--------| 
A|-2-----------------3--------2--------| 
E|-0--------------------------3--------| 2x 

(Is there an answer...) 
e|-3--------2--------3--------3--------| 
B|-3--------3--------3--------3--------| 
G|-0--------2--------0--------0--------| 
D|-0--------0--------0--------2--------| 
A|-2-----------------2--------3--------| 
E|-0-----------------0-----------------| 


Chorus (1x) 

Bridge  

(This could be the one last chance tonight) 
e|-3--------2--------3--------| 
B|-3--------3--------3--------| 
G|-0--------2--------0--------| 
D|-0--------0--------2--------| 
A|-2-----------------3--------| 
E|-0--------------------------| 

e|-2-2-2----x-x-x--3-3-3----x-x-x--3-3-3----x-x-x--3-3-3----3-3-3-| 
B|-3-3-3----x-x-x--3-3-3----x-x-x--3-3-3----x-x-x--3-3-3----3-3-3-| 
G|-2-2-2----x-x-x--0-0-0----x-x-x--0-0-0----x-x-x--0-0-0----0-0-0-| 
D|-0-0-0----x-x-x--0-0-0----x-x-x--2-2-2----x-x-x--0-0-0----0-0-0-| 
A|-----------------2-2-2----x-x-x--3-3-3----x-x-x--2-2-2----2-2-2-| 
E|-----------------0-0-0----x-x-x------------------3-3-3----3-3-3-| 


Chorus (1x) 


Outro 

e|-2--------3--------3--------3--------| 
B|-3--------3--------3--------3--------| 
G|-2--------0--------0--------0--------| 
D|-0--------0--------2--------0--------| 
A|----------2--------3--------2--------| 
E|----------0-----------------3--------| 

e|-2--------3--------3--------3-| 
B|-3--------3--------3--------3-| 
G|-2--------0--------0--------0-| 
D|-0--------0--------2--------0-| 
A|----------2--------3--------2-| 
E|----------0-----------------3-| 
 
		  

auto scroll beats size up size down change color hide chords drawings
tab show chords e-chords YouTube Clip e-chords hide all tabs e-chords go to top tab

share