Desaster

Tyrants Of The Netherworld

Desaster

tabs

by  UBIRBOMFIM

save to print version add songbook text version e-mail correct tuner
chordsukulelecavacokeyboardtabbassdrumsharmonicaflute Guitar Pro
close

there isn't a video lesson for this song

chords

Tyrants Of The Netherworld

	  		
Intro 
D|--0---0----0---0---------------0------5--5-7-8-/-10--7---0-2-3-P-2--0------| 
G|--5---5----7---7----7--8--7----5------------------------------------5------| 
C|---------------------------------------------------------------------------| 
F|---------------------------------------------------------------------------| 
A|---------------------------------------------------------------------------| 
D|---------------------------------------------------------------------------| 


Verse 

D|---------------------------------------------------------------------------| 
G|---------------------------------------------------------------------------| 
C|---------------------------------------------------------------------------| 
F|---------------------------------------------------------------------------| 
A|-7-7-7-7-7--10-9--10-9---10-10-10-10--9-9-9-9--10-9-10---------------------| 
D|-0-0-0-0-0--0--0--0--0---8--8--8--8---8-8-8-8--8--8-8----------------------| 


Chorus 

D|---------------------------------------------------------------------------| 
G|---------------------------------------------------------------------------| 
C|--------------------11--9-9-9---7--6---------------------------------------| 
F|--9--9--9---11-12---9---7-7-7---5--4----7--7--7---10-10-10--9--------------| 
A|--7--7--7---9--10-----------------------5--5--5---8--8--8---7--------------| 
D|---------------------------------------------------------------------------| 


Bridge 

D|---------------------------------------------------------------------0------| 
G|---------------------------------------------------------------------0------| 
C|----------------------------------------------------------------------------| 
F|--9---11--11-12---11---9---14--16-17--16--12--11---12-11---9-----2----------| 
A|--7---9---9--10-/-9----7---12--14-15--14--10--9--/-10-9----7-----2----------| 
D|-----------------------------------------------------------------0----------| 

  (Harmony) 
D|--12---7h-8p-7---5--8-7--5--7~~----12--8-7--5---3-2-3-2--0-----------------| 
G|---------------------------------------------------------------------------| 
C|---------------------------------------------------------------------------| 
F|---------------------------------------------------------------------------| 
A|---------------------------------------------------------------------------| 
D|---------------------------------------------------------------------------| 


InterludeBass+guitar 

D|-----------------------------------------------------------------------------| 
G|--3--------------------------------------------------------------------------| 
C|--2-----2-----2-----3-----3--------------------------------------------------| 
F|--0--0-----0-----1-----1---------5-----5---5-4-----------5------5---5-4-5--7-| 
A|------------------------------3-----3----------6-5---3------3----------------| 
D|-----------------------------------------------------------------------------| 


D|---------------------------------------------------------------------------------------------| 
G|---------------------------------------------------------------------------------------------| 
C|-----2------2-----2-------3-----3------3-----------------------------------------------------| 
F|--0-----0------0------1------1-----1--------------5----4------------------5---4-------5-7----| 
A|-------------------------------------------3-3-3----3-----3--6-5---3-3-3----3----3-3---------| 
D|---------------------------------------------------------------------------------------------| 

D|---------------------------------------------------------------------------| 
G|---------------------------------------------------------------------------| 
C|---7-----------------------------------------------------------------------| 
F|---7-----8----5---3--------------------------------------------------------| 
A|---5-----8----5---3--------------------------------------------------------| 
D|---------6----3---1--------------------------------------------------------| 

************************************ 

| x   Dead note 
| h   Hammer on 
| p   Pull-off 
| /   SliFe up 
| \   SliFe Down 
| ~   Vibrato 

************************************ 
		  

See also:

tabs Tankard - Alcoholic Nightmares tabs Kreator - Death Is Your Saviour tabs Kreator - Awakening Of The Gods tabs Kreator - Prevail tabs Kreator - Choir Of The Damned (solo) tabs Kreator - World Beyond
e-chords

Other versions:

tabs Desaster - Tyrants Of The Netherworld
auto scroll beats size up size down change color hide chords drawings
tab show chords e-chords YouTube Clip e-chords hide all tabs e-chords go to top tab

share