Dermot Kennedy

This Woodland Wont Listen

Dermot Kennedy

tabs

by  GUSTSILVA

save to print version add songbook text version e-mail correct tuner
chordsukulelecavacokeyboardtabbassdrumsharmonicaflute Guitar Pro
close

there isn't a video lesson for this song

chords

This Woodland Wont Listen

	  		
Intro 

E|--------------------------------------------------------------------------------------------------------| 
B|--1---1-1-1---1-1-1---1-1-1---1-1-1-1----1-1-1---1-1-1---1-1-1---1-1-1-1--------------------------------| 
G|--0h2-2-2-2h0-0-0-0h2-2-2-2h0-0-0-2-0-------------------------------------------------------------------| 
D|--3---3-3-3---3-3-3---3-3-3---3-3-3-3----2-2-2h0-0-0-0h2-2-2-2h0-0-0-2-0--------------------------------| 
A|--3---3-3-3---3-3-3---3-3-3---3-3-3-3----3-3-3---3-3-3---3-3-3---3-3-3-3--------------------------------| 
E|-----------------------------------------3-3-3---3-3-3---3-3-3---3-3-3-3--------------------------------| 

E|--------------------------------------------------------------------------------------------------------| 
B|--1---1-1-1---1-1-1---1-1-1---1-1-1-1----1-1-1---1-1-1---1-1-1---1-1-1-1--------------------------------| 
G|--0h2-2-2-2h0-0-0-0h2-2-2-2h0-0-0-2-0-------------------------------------------------------------------| 
D|--3---3-3-3---3-3-3---3-3-3---3-3-3-3----2-2-2h0-0-0-0h2-2-2-2h0-0-0-2-0--------------------------------| 
A|--3---3-3-3---3-3-3---3-3-3---3-3-3-3----3-3-3---3-3-3---3-3-3---3-3-3-3--------------------------------| 
E|-----------------------------------------3-3-3---3-3-3---3-3-3---3-3-3-3--------------------------------| 


verse 1 

E|--------------------------------------------------------------------------------------------------------| 
B|--1---1-1-1---1-1-1---1-1-1---1-1-1-1----1-1-1---1-1-1---1-1-1---1-1-1-1--------------------------------| 
G|--0h2-2-2-2h0-0-0-0h2-2-2-2h0-0-0-2-0-------------------------------------------------------------------| 
D|--3---3-3-3---3-3-3---3-3-3---3-3-3-3----2-2-2h0-0-0-0h2-2-2-2h0-0-0-2-0--------------------------------| 
A|--3---3-3-3---3-3-3---3-3-3---3-3-3-3----3-3-3---3-3-3---3-3-3---3-3-3-3--------------------------------| 
E|-----------------------------------------3-3-3---3-3-3---3-3-3---3-3-3-3--------------------------------| 
                  The monks kicking out at the birds in the square 

E|--------------------------------------------------------------------------------------------------------| 
B|--1---1-1-1---1-1-1---1-1-1---1-1-1-1----1-1-1---1-1-1---1-1-1---1-1-1-1--------------------------------| 
G|--0h2-2-2-2h0-0-0-0h2-2-2-2h0-0-0-2-0-------------------------------------------------------------------| 
D|--3---3-3-3---3-3-3---3-3-3---3-3-3-3----2-2-2h0-0-0-0h2-2-2-2h0-0-0-2-0--------------------------------| 
A|--3---3-3-3---3-3-3---3-3-3---3-3-3-3----3-3-3---3-3-3---3-3-3---3-3-3-3--------------------------------| 
E|-----------------------------------------3-3-3---3-3-3---3-3-3---3-3-3-3--------------------------------| 
                  You pushed your boat down the hill that?s not fair 

E|--------------------------------------------------------------------------------------------------------| 
B|--1---1-1-1---1-1-1---1-1-1---1-1-1-1----1-1-1---1-1-1---1-1-1---1-1-1-1--------------------------------| 
G|--0h2-2-2-2h0-0-0-0h2-2-2-2h0-0-0-2-0-------------------------------------------------------------------| 
D|--3---3-3-3---3-3-3---3-3-3---3-3-3-3----2-2-2h0-0-0-0h2-2-2-2h0-0-0-2-0--------------------------------| 
A|--3---3-3-3---3-3-3---3-3-3---3-3-3-3----3-3-3---3-3-3---3-3-3---3-3-3-3--------------------------------| 
E|-----------------------------------------3-3-3---3-3-3---3-3-3---3-3-3-3--------------------------------| 
                  Said you worked real hard on that, You said ?I was just sailing for fun? 

E|--------------------------------------------------------------------------------------------------------| 
B|--1---1-1-1---1-1-1---1-1-1---1-1-1-1----1-1-1---1-1-1---1-1-1---1-1-1-1--------------------------------| 
G|--0h2-2-2-2h0-0-0-0h2-2-2-2h0-0-0-2-0-------------------------------------------------------------------| 
D|--3---3-3-3---3-3-3---3-3-3---3-3-3-3----2-2-2h0-0-0-0h2-2-2-2h0-0-0-2-0--------------------------------| 
A|--3---3-3-3---3-3-3---3-3-3---3-3-3-3----3-3-3---3-3-3---3-3-3---3-3-3-3--------------------------------| 
E|-----------------------------------------3-3-3---3-3-3---3-3-3---3-3-3-3--------------------------------| 
                  But I know his crest will have fallen when darkness has won 

Chorus 

E|------------------------------3--3-3-3-3--3-3-3-3---3-3-3-3--3-3-3-3--3-3-3-3--3-3-3-3---3-3-3-3--3-3-3-3-| 
B|------------------------------3--3-3-3-3--3-3-3-3---3-3-3-3--3-3-3-3--3-3-3-3--3-3-3-3---3-3-3-3--3-3-3-3-| 
G|------------------------------0--0-0-0-0--0-0-0-2---2-2-2-2--2-2-2-0--0-0-0-0--0-0-0-2---2-2-2-2--2-2-2-2-| 
D|--2---2-2-2-2--2-2-2-2--2-2-2-0--0-0-0-0--0-0-0-0---0-0-0-0--0-0-0-0--0-0-0-0--0-0-0-0---0-0-0-0--0-0-0-0-| 
A|--2---2-2-2-2--2-2-2-2--2-2-2-2--2-2-2-2--2-2-2-0---0-0-0-0--0-0-0-2--2-2-2-2--2-2-2-0---0-0-0-0--0-0-0-0-| 
E|------------------------------3--3-3-3-3--3-3-3-2---2-2-2-2--2-2-2-3--3-3-3-3--3-3-3-2---2-2-2-2--2-2-2-2-| 
Oh we were darkness You were hope       You give me happiness ten fold 

E|---3--3-3-3-3--3-3-3-3---3-3-3-3--3-3-3-3--3-3-3-3--3-3-3-3---3-3-3-3--3-3-3-3-----| 
B|---3--3-3-3-3--3-3-3-3---3-3-3-3--3-3-3-3--3-3-3-3--3-3-3-3---3-3-3-3--3-3-3-3-----| 
G|---0--0-0-0-0--0-0-0-2---2-2-2-2--2-2-2-0--0-0-0-0--0-0-0-2---2-2-2-2--2-2-2-2-----| 
D|---0--0-0-0-0--0-0-0-0---0-0-0-0--0-0-0-0--0-0-0-0--0-0-0-0---0-0-0-0--0-0-0-0-----| 
A|---2--2-2-2-2--2-2-2-0---0-0-0-0--0-0-0-2--2-2-2-2--2-2-2-0---0-0-0-0--0-0-0-0-----| 
E|---3--3-3-3-3--3-3-3-2---2-2-2-2--2-2-2-3--3-3-3-3--3-3-3-2---2-2-2-2--2-2-2-2-----| 
     And now whenever I roam I?m not alone   You give me strength and I?ll hold on 

Instrumental 

E|---3--3-3-3---3--3-3-3---3--3-3-3-3-3-3-3-3-3---3--3-3-3---3--3-3-3---3--3-3-3-3-3-3-3-3-3--------| 
B|---3--3-3-3---3--3-3-3---3--3-3-3-3-3-3-3-3-3---3--3-3-3---3--3-3-3---3--3-3-3-3-3-3-3-3-3--------| 
G|---0--0-0-0---0--0-0-0---2--2-2-2-0-2-0-2-0-2---0--0-0-0---0--0-0-0---2--2-2-2-0-2-0-2-0-2--------| 
D|---0--0-0-0---2--2-2-2---0--0-0-0-0-0-0-0-0-0---0--0-0-0---2--2-2-2---0--0-0-0-0-0-0-0-0-0--------| 
A|---2--2-2-2---2--2-2-2---0--0-0-0-0-0-0-0-0-0---2--2-2-2---2--2-2-2---0--0-0-0-0-0-0-0-0-0--------| 
E|---3--3-3-3---0--0-0-0---2--2-2-2-2-2-2-2-2-2---3--3-3-3---0--0-0-0---2--2-2-2-2-2-2-2-2-2--------| 


E|---3--3-3-3---3--3-3-3---3--3-3-3-3-3-3-3-3-3---3--3-3-3---3--3-3-3---3--3-3-3-------------------| 
B|---3--3-3-3---3--3-3-3---3--3-3-3-3-3-3-3-3-3---3--3-3-3---3--3-3-3---3--3-3-3-0---0-0-0---------| 
G|---0--0-0-0---0--0-0-0---2--2-2-2-0-2-0-2-0-2---0--0-0-0---0--0-0-0---2--2-2-2-2/4-4-4-4/2/0-----| 
D|---0--0-0-0---2--2-2-2---0--0-0-0-0-0-0-0-0-0---0--0-0-0---2--2-2-2---0--0-0-0-0---0-0-0---------| 
A|---2--2-2-2---2--2-2-2---0--0-0-0-0-0-0-0-0-0---2--2-2-2---2--2-2-2---0--0-0-0-------------------| 
E|---3--3-3-3---0--0-0-0---2--2-2-2-2-2-2-2-2-2---3--3-3-3---0--0-0-0---2--2-2-2-------------------| 


verse 2 

E|----------------------------------------------------------------------------------------------------------| 
B|--1---1-1-1---1-1-1---1-1-1---1-1-1-1----1-1-1---1-1-1---1-1-1---1-1-1-1----------------------------------| 
G|--0h2-2-2-2h0-0-0-0h2-2-2-2h0-0-0-2-0---------------------------------------------------------------------| 
D|--3---3-3-3---3-3-3---3-3-3---3-3-3-3----2-2-2h0-0-0-0h2-2-2-2h0-0-0-2-0----------------------------------| 
A|--3---3-3-3---3-3-3---3-3-3---3-3-3-3----3-3-3---3-3-3---3-3-3---3-3-3-3----------------------------------| 
E|-----------------------------------------3-3-3---3-3-3---3-3-3---3-3-3-3----------------------------------| 
    The king loaned his castle to someone he thought he knew 

E|----------------------------------------------------------------------------------------------------------| 
B|--1---1-1-1---1-1-1---1-1-1---1-1-1-1----1-1-1---1-1-1---1-1-1---1-1-1-1----------------------------------| 
G|--0h2-2-2-2h0-0-0-0h2-2-2-2h0-0-0-2-0---------------------------------------------------------------------| 
D|--3---3-3-3---3-3-3---3-3-3---3-3-3-3----2-2-2h0-0-0-0h2-2-2-2h0-0-0-2-0----------------------------------| 
A|--3---3-3-3---3-3-3---3-3-3---3-3-3-3----3-3-3---3-3-3---3-3-3---3-3-3-3----------------------------------| 
E|-----------------------------------------3-3-3---3-3-3---3-3-3---3-3-3-3----------------------------------| 
    But greed sat in the throne, now the raiders are strolling through 

E|----------------------------------------------------------------------------------------------------------| 
B|--1---1-1-1---1-1-1---1-1-1---1-1-1-1----1-1-1---1-1-1---1-1-1---1-1-1-1----------------------------------| 
G|--0h2-2-2-2h0-0-0-0h2-2-2-2h0-0-0-2-0---------------------------------------------------------------------| 
D|--3---3-3-3---3-3-3---3-3-3---3-3-3-3----2-2-2h0-0-0-0h2-2-2-2h0-0-0-2-0----------------------------------| 
A|--3---3-3-3---3-3-3---3-3-3---3-3-3-3----3-3-3---3-3-3---3-3-3---3-3-3-3----------------------------------| 
E|-----------------------------------------3-3-3---3-3-3---3-3-3---3-3-3-3----------------------------------| 
     He lay slumped in the valley, Nothing more than a broken man, no 

E|----------------------------------------------------------------------------------------------------------| 
B|--1---1-1-1---1-1-1---1-1-1---1-1-1-1----1-1-1---1-1-1---1-1-1---1-1-1-1----------------------------------| 
G|--0h2-2-2-2h0-0-0-0h2-2-2-2h0-0-0-2-0---------------------------------------------------------------------| 
D|--3---3-3-3---3-3-3---3-3-3---3-3-3-3----2-2-2h0-0-0-0h2-2-2-2h0-0-0-2-0---2---2-2-2-2--2-2-2-2--2-2-2----| 
A|--3---3-3-3---3-3-3---3-3-3---3-3-3-3----3-3-3---3-3-3---3-3-3---3-3-3-3---2---2-2-2-2--2-2-2-2--2-2-2----| 
E|-----------------------------------------3-3-3---3-3-3---3-3-3---3-3-3-3----------------------------------| 
    Promising the wildlife that he'll take it all, All back if he can, oh no 

Chorus 

E|---3--3-3-3---3--3-3-3---3--3-3-3-3-3-3-3-3-3---3--3-3-3---3--3-3-3---3--3-3-3-3-3-3-3-3-3--------| 
B|---3--3-3-3---3--3-3-3---3--3-3-3-3-3-3-3-3-3---3--3-3-3---3--3-3-3---3--3-3-3-3-3-3-3-3-3--------| 
G|---0--0-0-0---0--0-0-0---2--2-2-2-0-2-0-2-0-2---0--0-0-0---0--0-0-0---2--2-2-2-0-2-0-2-0-2--------| 
D|---0--0-0-0---2--2-2-2---0--0-0-0-0-0-0-0-0-0---0--0-0-0---2--2-2-2---0--0-0-0-0-0-0-0-0-0--------| 
A|---2--2-2-2---2--2-2-2---0--0-0-0-0-0-0-0-0-0---2--2-2-2---2--2-2-2---0--0-0-0-0-0-0-0-0-0--------| 
E|---3--3-3-3---0--0-0-0---2--2-2-2-2-2-2-2-2-2---3--3-3-3---0--0-0-0---2--2-2-2-2-2-2-2-2-2--------| 
     Oh we were darkness, You were hope             You give me happiness ten fold 

E|---3--3-3-3---3--3-3-3---3--3-3-3-3-3-3-3-3-3---3--3-3-3---3--3-3-3---3--3-3-3-3-3-3-3-3-3--------| 
B|---3--3-3-3---3--3-3-3---3--3-3-3-3-3-3-3-3-3---3--3-3-3---3--3-3-3---3--3-3-3-3-3-3-3-3-3--------| 
G|---0--0-0-0---0--0-0-0---2--2-2-2-0-2-0-2-0-2---0--0-0-0---0--0-0-0---2--2-2-2-0-2-0-2-0-2--------| 
D|---0--0-0-0---2--2-2-2---0--0-0-0-0-0-0-0-0-0---0--0-0-0---2--2-2-2---0--0-0-0-0-0-0-0-0-0--------| 
A|---2--2-2-2---2--2-2-2---0--0-0-0-0-0-0-0-0-0---2--2-2-2---2--2-2-2---0--0-0-0-0-0-0-0-0-0--------| 
E|---3--3-3-3---0--0-0-0---2--2-2-2-2-2-2-2-2-2---3--3-3-3---0--0-0-0---2--2-2-2-2-2-2-2-2-2--------| 
     And now whenever I roam I'm not alone        You give me strength and I'll hold (oh no) 

E|---3--3-3-3---3--3-3-3---3--3-3-3-3-3-3-3-3-3---3--3-3-3---3--3-3-3---3--3-3-3-3-3-3-3-3-3--------| 
B|---3--3-3-3---3--3-3-3---3--3-3-3-3-3-3-3-3-3---3--3-3-3---3--3-3-3---3--3-3-3-3-3-3-3-3-3--------| 
G|---0--0-0-0---0--0-0-0---2--2-2-2-0-2-0-2-0-2---0--0-0-0---0--0-0-0---2--2-2-2-0-2-0-2-0-2--------| 
D|---0--0-0-0---2--2-2-2---0--0-0-0-0-0-0-0-0-0---0--0-0-0---2--2-2-2---0--0-0-0-0-0-0-0-0-0--------| 
A|---2--2-2-2---2--2-2-2---0--0-0-0-0-0-0-0-0-0---2--2-2-2---2--2-2-2---0--0-0-0-0-0-0-0-0-0--------| 
E|---3--3-3-3---0--0-0-0---2--2-2-2-2-2-2-2-2-2---3--3-3-3---0--0-0-0---2--2-2-2-2-2-2-2-2-2--------| 


Bridge 

E|---3--3-3-3---3--3-3-3---3--3-3-3-3-3-3-3-3-3---3--3-3-3---3--3-3-3---3--3-3-3-3-3-3-3-3-3--------| 
B|---3--3-3-3---3--3-3-3---3--3-3-3-3-3-3-3-3-3---3--3-3-3---3--3-3-3---3--3-3-3-3-3-3-3-3-3--------| 
G|---0--0-0-0---0--0-0-0---2--2-2-2-2-2-2-2-2-2---0--0-0-0---0--0-0-0---2--2-2-2-2-2-2-2-2-2--------| 
D|---0--0-0-0---2--2-2-2---0--0-0-0-0-0-0-0-0-0---0--0-0-0---2--2-2-2---0--0-0-0-0-0-0-0-0-0--------| 
A|---2--2-2-2---2--2-2-2---0--0-0-0-0-0-0-0-0-0---2--2-2-2---2--2-2-2---0--0-0-0-0-0-0-0-0-0--------| 
E|---3--3-3-3---0--0-0-0---2--2-2-2-2-2-2-2-2-2---3--3-3-3---0--0-0-0---2--2-2-2-2-2-2-2-2-2--------| 
     The trees don't walk they run wild           Saddle up the night, still young as a child 

E|---3--3-3-3---3--3-3-3---3--3-3-3-3-3-3-3-3-3---3--3-3-3---3--3-3-3---3--3-3-3-3-3-3-3-3-3--------| 
B|---3--3-3-3---3--3-3-3---3--3-3-3-3-3-3-3-3-3---3--3-3-3---3--3-3-3---3--3-3-3-3-3-3-3-3-3--------| 
G|---0--0-0-0---0--0-0-0---2--2-2-2-2-2-2-2-2-2---0--0-0-0---0--0-0-0---2--2-2-2-2-2-2-2-2-2--------| 
D|---0--0-0-0---2--2-2-2---0--0-0-0-0-0-0-0-0-0---0--0-0-0---2--2-2-2---0--0-0-0-0-0-0-0-0-0--------| 
A|---2--2-2-2---2--2-2-2---0--0-0-0-0-0-0-0-0-0---2--2-2-2---2--2-2-2---0--0-0-0-0-0-0-0-0-0--------| 
E|---3--3-3-3---0--0-0-0---2--2-2-2-2-2-2-2-2-2---3--3-3-3---0--0-0-0---2--2-2-2-2-2-2-2-2-2--------| 
     I would have seen you cast off into nothing, You couldn't see me but our hearts were almost touching 

E|---3--3-3-3---3--3-3-3---3--3-3-3-3-3-3-3-3-3---3--3-3-3---3--3-3-3---3--3-3-3-3-3-3-3-3-3--------| 
B|---3--3-3-3---3--3-3-3---3--3-3-3-3-3-3-3-3-3---3--3-3-3---3--3-3-3---3--3-3-3-3-3-3-3-3-3--------| 
G|---0--0-0-0---0--0-0-0---2--2-2-2-2-2-2-2-2-2---0--0-0-0---0--0-0-0---2--2-2-2-2-2-2-2-2-2--------| 
D|---0--0-0-0---2--2-2-2---0--0-0-0-0-0-0-0-0-0---0--0-0-0---2--2-2-2---0--0-0-0-0-0-0-0-0-0--------| 
A|---2--2-2-2---2--2-2-2---0--0-0-0-0-0-0-0-0-0---2--2-2-2---2--2-2-2---0--0-0-0-0-0-0-0-0-0--------| 
E|---3--3-3-3---0--0-0-0---2--2-2-2-2-2-2-2-2-2---3--3-3-3---0--0-0-0---2--2-2-2-2-2-2-2-2-2--------| 
 White horses running, that's all that what you wrote, And that sunset was stunning me too 

E|---3--3-3-3---3--3-3-3---3--3-3-3-3-3-3-3-3-3---3--3-3-3---3--3-3-3---3--3-3-3-3-3-3-3-3-3--------| 
B|---3--3-3-3---3--3-3-3---3--3-3-3-3-3-3-3-3-3---3--3-3-3---3--3-3-3---3--3-3-3-3-3-3-3-3-3--------| 
G|---0--0-0-0---0--0-0-0---2--2-2-2-2-2-2-2-2-2---0--0-0-0---0--0-0-0---2--2-2-2-2-2-2-2-2-2--------| 
D|---0--0-0-0---2--2-2-2---0--0-0-0-0-0-0-0-0-0---0--0-0-0---2--2-2-2---0--0-0-0-0-0-0-0-0-0--------| 
A|---2--2-2-2---2--2-2-2---0--0-0-0-0-0-0-0-0-0---2--2-2-2---2--2-2-2---0--0-0-0-0-0-0-0-0-0--------| 
E|---3--3-3-3---0--0-0-0---2--2-2-2-2-2-2-2-2-2---3--3-3-3---0--0-0-0---2--2-2-2-2-2-2-2-2-2--------| 
     Nothing proud down there                     Running down won't get one sorry prayer 

E|---3--3-3-3---3--3-3-3---3--3-3-3-3-3-3-3-3-3---3--3-3-3---3--3-3-3---3--3-3-3-3-3-3-3-3-3--------| 
B|---3--3-3-3---3--3-3-3---3--3-3-3-3-3-3-3-3-3---3--3-3-3---3--3-3-3---3--3-3-3-3-3-3-3-3-3--------| 
G|---0--0-0-0---0--0-0-0---2--2-2-2-2-2-2-2-2-2---0--0-0-0---0--0-0-0---2--2-2-2-2-2-2-2-2-2--------| 
D|---0--0-0-0---2--2-2-2---0--0-0-0-0-0-0-0-0-0---0--0-0-0---2--2-2-2---0--0-0-0-0-0-0-0-0-0--------| 
A|---2--2-2-2---2--2-2-2---0--0-0-0-0-0-0-0-0-0---2--2-2-2---2--2-2-2---0--0-0-0-0-0-0-0-0-0--------| 
E|---3--3-3-3---0--0-0-0---2--2-2-2-2-2-2-2-2-2---3--3-3-3---0--0-0-0---2--2-2-2-2-2-2-2-2-2--------| 
     From me                                      From me 

E|---3--3-3-3---3--3-3-3---3--3-3-3-3-3-3-3-3-3---3--3-3-3---3--3-3-3---3--3-3-3-3-3-3-3-3-3--------| 
B|---3--3-3-3---3--3-3-3---3--3-3-3-3-3-3-3-3-3---3--3-3-3---3--3-3-3---3--3-3-3-3-3-3-3-3-3--------| 
G|---0--0-0-0---0--0-0-0---2--2-2-2-2-2-2-2-2-2---0--0-0-0---0--0-0-0---2--2-2-2-2-2-2-2-2-2--------| 
D|---0--0-0-0---2--2-2-2---0--0-0-0-0-0-0-0-0-0---0--0-0-0---2--2-2-2---0--0-0-0-0-0-0-0-0-0--------| 
A|---2--2-2-2---2--2-2-2---0--0-0-0-0-0-0-0-0-0---2--2-2-2---2--2-2-2---0--0-0-0-0-0-0-0-0-0--------| 
E|---3--3-3-3---0--0-0-0---2--2-2-2-2-2-2-2-2-2---3--3-3-3---0--0-0-0---2--2-2-2-2-2-2-2-2-2--------| 
     Cause I'm not dragging you out, no           No I'm not dragging you out, no 

E|---3--3-3-3---3--3-3-3---3--3-3-3-3-3-3-3-3-3---3--3-3-3---3--3-3-3---3--3-3-3-3-3-3-3-3-3--------| 
B|---3--3-3-3---3--3-3-3---3--3-3-3-3-3-3-3-3-3---3--3-3-3---3--3-3-3---3--3-3-3-3-3-3-3-3-3--------| 
G|---0--0-0-0---0--0-0-0---2--2-2-2-2-2-2-2-2-2---0--0-0-0---0--0-0-0---2--2-2-2-2-2-2-2-2-2--------| 
D|---0--0-0-0---2--2-2-2---0--0-0-0-0-0-0-0-0-0---0--0-0-0---2--2-2-2---0--0-0-0-0-0-0-0-0-0--------| 
A|---2--2-2-2---2--2-2-2---0--0-0-0-0-0-0-0-0-0---2--2-2-2---2--2-2-2---0--0-0-0-0-0-0-0-0-0--------| 
E|---3--3-3-3---0--0-0-0---2--2-2-2-2-2-2-2-2-2---3--3-3-3---0--0-0-0---2--2-2-2-2-2-2-2-2-2--------| 
     This isn't me calling you out                I'm not calling you out 


Outro 

E|---3--3-3-3---3--3-3-3---3--3-3-3-3-3-3-3-3-3---3--3-3-3---3--3-3-3---3--3-3-3-3-3-3-3-3-3--------| 
B|---3--3-3-3---3--3-3-3---3--3-3-3-3-3-3-3-3-3---3--3-3-3---3--3-3-3---3--3-3-3-3-3-3-3-3-3--------| 
G|---0--0-0-0---0--0-0-0---2--2-2-2-2-2-2-2-2-2---0--0-0-0---0--0-0-0---2--2-2-2-2-2-2-2-2-2--------| 
D|---0--0-0-0---2--2-2-2---0--0-0-0-0-0-0-0-0-0---0--0-0-0---2--2-2-2---0--0-0-0-0-0-0-0-0-0--------| 
A|---2--2-2-2---2--2-2-2---0--0-0-0-0-0-0-0-0-0---2--2-2-2---2--2-2-2---0--0-0-0-0-0-0-0-0-0--------| 
E|---3--3-3-3---0--0-0-0---2--2-2-2-2-2-2-2-2-2---3--3-3-3---0--0-0-0---2--2-2-2-2-2-2-2-2-2--------| 
 Just leave your shoes by the edge of the woods,   You've never quite caught me but then, nobody could  

E|---3--3-3-3---3--3-3-3---3--3-3-3-3-3-3-3-3-3---3--3-3-3---3--3-3-3---3--3-3-3-3-3-3-3-3-3--------| 
B|---3--3-3-3---3--3-3-3---3--3-3-3-3-3-3-3-3-3---3--3-3-3---3--3-3-3---3--3-3-3-3-3-3-3-3-3--------| 
G|---0--0-0-0---0--0-0-0---2--2-2-2-2-2-2-2-2-2---0--0-0-0---0--0-0-0---2--2-2-2-2-2-2-2-2-2--------| 
D|---0--0-0-0---2--2-2-2---0--0-0-0-0-0-0-0-0-0---0--0-0-0---2--2-2-2---0--0-0-0-0-0-0-0-0-0--------| 
A|---2--2-2-2---2--2-2-2---0--0-0-0-0-0-0-0-0-0---2--2-2-2---2--2-2-2---0--0-0-0-0-0-0-0-0-0--------| 
E|---3--3-3-3---0--0-0-0---2--2-2-2-2-2-2-2-2-2---3--3-3-3---0--0-0-0---2--2-2-2-2-2-2-2-2-2--------| 
     Well I was free                              Because I'd broken free and I was running 

E|---3--3-3-3---3--3-3-3---3--3-3-3-3-3-3-3-3-3---3--3-3-3---3--3-3-3---3--3-3-3-3-3-3-3-3-3--------| 
B|---3--3-3-3---3--3-3-3---3--3-3-3-3-3-3-3-3-3---3--3-3-3---3--3-3-3---3--3-3-3-3-3-3-3-3-3--------| 
G|---0--0-0-0---0--0-0-0---2--2-2-2-2-2-2-2-2-2---0--0-0-0---0--0-0-0---2--2-2-2-2-2-2-2-2-2--------| 
D|---0--0-0-0---2--2-2-2---0--0-0-0-0-0-0-0-0-0---0--0-0-0---2--2-2-2---0--0-0-0-0-0-0-0-0-0--------| 
A|---2--2-2-2---2--2-2-2---0--0-0-0-0-0-0-0-0-0---2--2-2-2---2--2-2-2---0--0-0-0-0-0-0-0-0-0--------| 
E|---3--3-3-3---0--0-0-0---2--2-2-2-2-2-2-2-2-2---3--3-3-3---0--0-0-0---2--2-2-2-2-2-2-2-2-2--------| 
      

E|---3--3-3-3---3--3-3-3---3--3-3-3-3-3-3-3-3-3---3--3-3-3---3--3-3-3---3--3-3-3-3-3-3-3-3-3--------| 
B|---3--3-3-3---3--3-3-3---3--3-3-3-3-3-3-3-3-3---3--3-3-3---3--3-3-3---3--3-3-3-3-3-3-3-3-3--------| 
G|---0--0-0-0---0--0-0-0---2--2-2-2-2-2-2-2-2-2---0--0-0-0---0--0-0-0---2--2-2-2-2-2-2-2-2-2--------| 
D|---0--0-0-0---2--2-2-2---0--0-0-0-0-0-0-0-0-0---0--0-0-0---2--2-2-2---0--0-0-0-0-0-0-0-0-0--------| 
A|---2--2-2-2---2--2-2-2---0--0-0-0-0-0-0-0-0-0---2--2-2-2---2--2-2-2---0--0-0-0-0-0-0-0-0-0--------| 
E|---3--3-3-3---0--0-0-0---2--2-2-2-2-2-2-2-2-2---3--3-3-3---0--0-0-0---2--2-2-2-2-2-2-2-2-2--------| 
     Ooooohhhhh Oooohh Ohhhh Oh Ohhhooohh 

E|---3--3-3-3---3--3-3-3---3--3-3-3-3-3-3-3-3-3---3--3-3-3---3--3-3-3---3--3-3-3-3-3-3-3-3-3--------| 
B|---3--3-3-3---3--3-3-3---3--3-3-3-3-3-3-3-3-3---3--3-3-3---3--3-3-3---3--3-3-3-3-3-3-3-3-3--------| 
G|---0--0-0-0---0--0-0-0---2--2-2-2-2-2-2-2-2-2---0--0-0-0---0--0-0-0---2--2-2-2-2-2-2-2-2-2--------| 
D|---0--0-0-0---2--2-2-2---0--0-0-0-0-0-0-0-0-0---0--0-0-0---2--2-2-2---0--0-0-0-0-0-0-0-0-0--------| 
A|---2--2-2-2---2--2-2-2---0--0-0-0-0-0-0-0-0-0---2--2-2-2---2--2-2-2---0--0-0-0-0-0-0-0-0-0--------| 
E|---3--3-3-3---0--0-0-0---2--2-2-2-2-2-2-2-2-2---3--3-3-3---0--0-0-0---2--2-2-2-2-2-2-2-2-2--------| 
     Ooooohhhhh Oooohh Ohhhh Oh Ohhhooohh 



************************************ 

| h  Hammer-on 
| /  Slide up 

************************************ 
		  

auto scroll beats size up size down change color hide chords drawings
tab show chords e-chords YouTube Clip e-chords hide all tabs e-chords go to top tab

share