Depresión Sonora

Ya No Hay Verano

Depresión Sonora

tabs

by  GUSTSILVA

save to print version add songbook text version e-mail correct tuner
chordsukulelecavacokeyboardtabbassdrumsharmonicaflute Guitar Pro
close

there isn't a video lesson for this song

chords

Ya No Hay Verano

	  		Intro 

E|------------------------ 
B|----------------------- 
G|----------------------- 
D|--8--8--8--8--8--9--8-- 
A|----------------------- 
E|----------------------- 

E|--------------------------------- 
B|--------------------------------- 
G|--------------------------------- 
D|--8--8--8--8--11--9--8----------- 
A|------------------------9--8--9-- 
E|--------------------------------- 

E|--------------------------- 
B|--------------------------- 
G|--------------------------- 
D|------------8--9--8-----8-- 
A|--8--9--11-----------9----- 
E|--------------------------- 

E|------------------------ 
B|----------------------- 
G|----------------------- 
D|--8--8--8--8--8--9--8-- 
A|----------------------- 
E|----------------------- 

E|--------------------------------- 
B|--------------------------------- 
G|--------------------------------- 
D|--8--8--8--8--11--9--8----------- 
A|------------------------9--8--9-- 
E|--------------------------------- 

E|----------------------- 
B|----------------------- 
G|----------------------- 
D|-----------6--8--9--8-- 
A|--6--8--9-------------- 
E|----------------------- 

Verse 

E|-------------------- 
B|-------------------- 
G|-----8-----8-------- 
D|-----8-----8--8--8-- 
A|-------------------- 
E|--7-----7----------- 

E|-------------------- 
B|-------------------- 
G|-----3-----3-------- 
D|-----3-----3--3--3-- 
A|-------------------- 
E|--2-----2----------- 

E|-------------------- 
B|-------------------- 
G|-----8-----8-------- 
D|-----8-----8--8--8-- 
A|-------------------- 
E|--7-----7----------- 

E|-------------------- 
B|-------------------- 
G|-----3-----3-------- 
D|-----3-----3--2--3-- 
A|-------------------- 
E|--2-----2----------- 

x5 

Intro (Brige?) 

E|------------------------ 
B|----------------------- 
G|----------------------- 
D|--8--8--8--8--8--9--8-- 
A|----------------------- 
E|----------------------- 

E|--------------------------------- 
B|--------------------------------- 
G|--------------------------------- 
D|--8--8--8--8--11--9--8----------- 
A|------------------------9--8--9-- 
E|--------------------------------- 

E|--------------------------- 
B|--------------------------- 
G|--------------------------- 
D|------------8--9--8-----8-- 
A|--8--9--11-----------9----- 
E|--------------------------- 

E|------------------------ 
B|----------------------- 
G|----------------------- 
D|--8--8--8--8--8--9--8-- 
A|----------------------- 
E|----------------------- 

E|--------------------------------- 
B|--------------------------------- 
G|--------------------------------- 
D|--8--8--8--8--11--9--8----------- 
A|------------------------9--8--9-- 
E|--------------------------------- 

E|----------------------- 
B|----------------------- 
G|----------------------- 
D|-----------6--8--9--8-- 
A|--6--8--9-------------- 
E|----------------------- 

Verse 

E|-------------------- 
B|-------------------- 
G|-----8-----8-------- 
D|-----8-----8--8--8-- 
A|-------------------- 
E|--7-----7----------- 

E|-------------------- 
B|-------------------- 
G|-----3-----3-------- 
D|-----3-----3--3--3-- 
A|-------------------- 
E|--2-----2----------- 

E|-------------------- 
B|-------------------- 
G|-----8-----8-------- 
D|-----8-----8--8--8-- 
A|-------------------- 
E|--7-----7----------- 

E|-------------------- 
B|-------------------- 
G|-----3-----3-------- 
D|-----3-----3--2--3-- 
A|-------------------- 
E|--2-----2----------- 

x5 

Tablatura de Bajo: 

Intro 

G|-------------------------------------------------------------------- 
D|-------------------------------------------------------------------- 
A|--2--2--2--2--2--2--2--2--2--2--2----------------------------------- 
E|-----------------------------------2--2--2--2--2--2--2--2--2--2--2-- 

Verse 

G|--------3----------- 
D|-----4-----4--3--4-- 
A|--2----------------- 
E|-------------------- 

G|-------------------- 
D|--------3----------- 
A|-----1-----1-----1-- 
E|--2-----------2----- 


Espero y les haya servido la tablatura 3 
		  

auto scroll beats size up size down change color hide chords drawings
tab show chords e-chords YouTube Clip e-chords hide all tabs e-chords go to top tab

share